Blindside - Pitiful Chords & Tabs

 

Pitiful Chords & Tabs

Blindside Chords & Tabs

Version: 4 Type: Tab 0 ratings
1 star 2 stars 3 stars 4 stars 5 stars
comments

Pitiful Tab

   
-------------------------------------------------------------------------------
			     PITIFUL - BLINDSIDE
-------------------------------------------------------------------------------

By:itssadthatyousuck

THIS IS ONE OF THE BEST SONGS EVER. I HIGHLY RECCOMEND BLINDSIDE'S NEW CD, SILENCE.
THIS SONG IS PRETTY HARD WITH THE OCTAVE SLIDES IN THE CHORUS, BUT IF 
YOU PRACTICE YOU'LL GET IT. HAHA. GOOD LUCK AND ENJOY.


TUNING: DROPPED D + HALF STEP DOWN ( Db Ab Db Gb Bb Eb ) TUNING IS VERY INPORTANT!!!
 
 INTRO/CHORUS
e|-------|------------------------------------------------|------------------|
B|-------|------------------------------------------------|------------------|
G|-------|-9-97/12-127-9-97/12/7--9-97-/12-127-9-97/127---|------------------|
D|-------|-X-XX--X--XX-X-XX--X-X--X-XX---X--X--X-XX--XX---|-2~---------------|
A|-X-X-X-|-7-75/10-105-7-75/10/5--7-75-/10-105-7-75/105---|-2~---------------|
D|-X-X-X-|----------------------20---------------------20-|-2~---------------|

  VERSE (WHOLE THING IS SLIGHTLY PALM MUTED)
e|---------------------------------------------------------------------------|
B|-----------88877777----------88877777---------88877777----------88877777---|
G|-5/7-999999--------5/7-999999--------5/7-99999--------5/7-999999-----------|
D|---------------------------------------------------------------------------|
A|---------------------------------------------------------------------------|
D|---------------------------------------------------------------------------|
[ Tab from: http://www.guitartabs.cc/tabs/b/blindside/pitiful_tab_ver_4.html ]
  BRIDGE
e|---------------------------------------------------------------------------|
B|---------------------------------------------------------------------------|
G|---------------------------------------------------------------------------|
D|-2222222244444444555555554444444422222222444444441010101010101010999999999-|
A|-2222222244444444555555554444444422222222444444441010101010101010999999999-|
D|-2222222244444444555555554444444422222222444444441010101010101010999999999-|

  BRIDGE (CONTINUED)
e|---------------------------------------------------------------------------|
B|-8-87/12-12/7-8-87/12-12/7-8-87/12-12/7-8-87/12-12/7-----------------------|
G|---------------------------------------------------------------------------|
D|---------------------------------------------------------------------------|
A|---------------------------------------------------------------------------|
D|---------------------------------------------------------------------------|

  BRIDGE (CONTINUED)
e|--------14----------14----------14----------14-----------------------------|
B|-8787/12--12/8787/12--12/8787/12--12/8787/12--12/x-------------------------|
G|---------------------------------------------------------------------------|
D|---------------------------------------------------------------------------|
A|---------------------------------------------------------------------------|
D|---------------------------------------------------------------------------|

  OUTRO (WITH SLIGHT TREMOLO+DISTORTION AT END)
e|----------------------------0~---------------------------------------------|
B|---12~~/13~/12~/10~0---0----0~---------------------------------------------|
G|-------------------X---X----X~---------------------------------------------|
D|-2~----------------9~~/5~/2~2~---------------------------------------------|
A|-2~------------------------------------------------------------------------|
D|-2~------------------------------------------------------------------------|

Have Fun :)
===============================================================================
Comments