Blindside - Pitiful Chords & Tabs

 

Pitiful Chords & Tabs

Blindside Chords & Tabs

Version: 2 Type: Tab 0 ratings
1 star 2 stars 3 stars 4 stars 5 stars
comments

Pitiful Tab

Sorry this is the first time i've ever tabed anything. 
It should be pretty close, i hope it helps.

Blindside - Pitiful

This is the whole song broke down in riffs. 

Tune down half a step.
 
riff 1
]-----------------------------------------------------------------------|
]-----------------------------------------------------------------------|
]----9\7-/12-12\7-/9--9\7-/12-----------9\7-/12-12\7-/9--9\7-/12--------|
]-2--x--------x-------x----------5---2--x--------x-------x----------5---|
]-2--7\5-/10-10\5-/7--7\5-/10----5---2--7\5-/10-10\5-/7--7\5-/12----5---|
]-0----------------------------0-3-0-0----------------------------0-3-0-|
[ Tab from: http://www.guitartabs.cc/tabs/b/blindside/pitiful_tab_ver_2.html ]
riff 2
]-----------------------------------|
]--------------------8-8-8-7-7-7-7--|
]-7h9-9-9-9-9-9-9-9-----------------|
]-----------------------------------|
]-----------------------------------|
]-----------------------------------|

riff 3
]--------------------------------------------------------------------------|
]--------------------------------------------------------------------------|
]-9-9-9-9-9-9-9/11-11-11-11-11-11-11-11------------------------------------|
]-9-9-9-9-9-9-9/11-11-11-11-11-11-11-11--5-5-5-5-5-5-5-5--4-4-4-4-4-4-4-4--|
]-7-7-7-7-7-7-7/9--9--9--9--9--9--9--9---5-5-5-5-5-5-5-5--4-4-4-4-4-4-4-4--|
]----------------------------------------3-3-3-3-3-3-3-3--2-2-2-2-2-2-2-2--|

riff 4
]------------------|
]-8-8p7-7/12-12/7--|
]------------------|
]------------------|
]------------------|
]------------------|

riff 5
]----------------------------------------|
]--------------13------------------13----|
]-8p7p8p7--7/12--12\7/8\7/8\7--7/12--12--|
]----------------------------------------|
]----------------------------------------|
]----------------------------------------|
Comments