Blindside - Pitiful Chords & Tabs

 

Pitiful Chords & Tabs

Blindside Chords & Tabs

Version: 1 Type: Tab 0 ratings
1 star 2 stars 3 stars 4 stars 5 stars
comments

Pitiful Tab

   
Blindside-“Pitiful”
Silence
Copyright 2002 Elektra Records

No one had posted a tab for this great song yet so I went for it…

Intro            {}= Play one time only

E------------------------------------------ 
B------------------------------------------
G-{8}—-8/6\11—-11/8--8—-8/6—-11/8—-11/8--8—LET RING  2X
D-{8}—-x/x\x---x/x---x—-x/x—-x/x---x/x---x-
A—{6}—-6/4\9---9/6---6—-6/4—-9/6---9/6---6-   
E------------------------------------------

VERSE

E-------------------------------
B------------77-66-666----------   8x
G—6h8-88-888--------------------
D-------------------------------
A-------------------------------
E-------------------------------

PRE-CHORUS

E---------------------------
B---------------------------   1X
G—-8\11/8-------------------
D—-8\11/8-------------------
A—-6\9/6--------------------
E---------------------------

CHORUS (A.K.A the INTRO)- 4X

VERSE- 8X

PRE-CHORUS- 1X

CHORUS (A.K.A. the INTRO)- 4X

1ST BRIDGE
[ Tab from: http://www.guitartabs.cc/tabs/b/blindside/pitiful_tab.html ]
E-----------------------------------------
B-----------------------------------------   2X
G--8-STRUM--10-STRUM----------------------
D--8--------10--------7-STRUM--8-STRUM----
A--6--------8---------7--------8----------
E---------------------5--------6----------

2ND BRIDGE

E-----------------------
B--77-6\11--11-6-7------    4X
G-----------------------
D-----------------------
A-----------------------
E-----------------------

3RD BRIDGE

E------------12b----------
B--7-6-7-6-7-----7-6------   8X
G-------------------------
D-------------------------
A-------------------------
E-------------------------

PRE- CHORUS- 1X

CHORUS (A.K.A the INTRO)- 7X

OUTRO

E--------------------------
B--------------------------   1X
G--------------------------
D--/8-4-3--/8-4-1----------
A--------------------------
E--------------------------

WELL that’s it I think, if you have and corrections or comments e-mail me at barr106@hotmail.com.  Jesus loves
You,just give him a chance and you will never be alone 
Again.  God Bless
Comments