Blindside - Pitiful Chords & Tabs

 

Pitiful Chords & Tabs

Blindside Chords & Tabs

Version: 3 Type: Bass Tab 0 ratings
1 star 2 stars 3 stars 4 stars 5 stars
comments

Pitiful Bass Tab

Ok its GCAC# tuning ( thats how i play it )

Intro/verse
G-------------------------------
C-------------------------------
A--------2--3~----------2---3~--
C#--0--1--------0---1-----------
[ Tab from: http://www.guitartabs.cc/tabs/b/blindside/pitiful_btab_ver_3.html ]
Chorus
G-----------------------------
C-----------------------------
A-----------------------------
C#---0---1--2-3-2--0-1-2-3-2--

Bridge/outro
G------------------------------------------------------------
C------------------------------------------------------------
A------------------------------------------------------------
C#---0-------------1---------------2-------3----------------2
Comments