Blindside - Follow You Down Chords & Tabs

 

Follow You Down Chords & Tabs

Blindside Chords & Tabs

Version: 3 Type: Tab 0 ratings
1 star 2 stars 3 stars 4 stars 5 stars
comments

Follow You Down Tab

   
Band: Blindside
Song: Follow You Down
Album: About a Burning Fire
Tuning: Dropped d, down 1/2 step (Db Ab Db Gb Bb Eb)

 The "solo" is like 98% correct
 i'm pretty sure the rest of the song is perfect.



Intro/Main Riff

Eb|-------------------------------|
Bb|-------------------------------|
Gb|-----------7--7-101010-999-666-|
Db|-----------x--x--x-x-x-xxx-xxx-|
Ab|-0-3-0-5-0-5--5--8-8-8-777-444-|
Db|-0-3-0-5-0---------------------| x2

Eb|------------------------|
Bb|------------------------|
Gb|-66-666-66-666-66-666-7-|
Db|-xx-xxx-xx-xxx-xx-xxx-x-|
Ab|-44-444-44-444-44-444-5-|
Db|------------------------| x1



Verse

Eb|--------------------------|
Bb|--------------------------|
Gb|--------------------------|
Db|--------------------------|
Ab|--------------------------|
Db|-000-00-000-00-000-00-000-| play however many times



Chorus

Eb|----------------------------|
Bb|----------------------------|
Gb|----------------------------|
Db|-5-5-5--8-8-8--3-3-3--8-8-8-|
Ab|-5-5-5--8-8-8--3-3-3--8-8-8-|
Db|-5-5-5--8-8-8--3-3-3--8-8-8-| x1

Eb|----------------------------------|
Bb|----------------------------------|
Gb|----------------------------------|
Db|-7-7-7-7-7-7-7-7--1-1-1-1-1-1-1-1-|
Ab|-5-5-5-5-5-5-5-5--1-1-1-1-1-1-1-1-| 
Db|-5-5-5-5-5-5-5-5--1-1-1-1-1-1-1-1-| x1
[ Tab from: http://www.guitartabs.cc/tabs/b/blindside/follow_you_down_tab_ver_3.html ]
Eb|-------------------------------------|
Bb|-------------------------------------|
Gb|-------------------------------------|
Db|-10-10-10-10-10-10-10--1-1-1-1-1-1-1-|
Ab|-10-10-10-10-10-10-10--1-1-1-1-1-1-1-|
Db|-10-10-10-10-10-10-10--1-1-1-1-1-1-1-| x3

  |----then play the main riff twice----|



Solo

Eb|---------------------------------|
Bb|---------------------------------|
Gb|---------------------------------|
Db|---------------------------------|
Ab|-0-13-15-12-0-14-0-13-0-15-17-12-|
Db|-0----------0----0----0----------|

Eb|-----------------------------------------------------|
Bb|-----------------------------------------------------|
Gb|-----------------------------------------------------|
Db|-----------------------------------------------------|
Ab|-0-10-0-9-0-11-11-0-11-11-0-11-11-0-11-11-0-13-15-12-|
Db|-0----0---0-------0-------0-------0-------0----------|

Eb|--------------------------------------------------------------------------|
Bb|--------------------------------------------------------------------------|
Gb|--------------------------------------------------------------------------|
Db|--------------------------------------------------------------------------|
Ab|-0-14-0-13-0-15-17-12-0-10-0-9-0-11-11-0-11-11-0-11-11-0-11-11-0-13-15-12-|
Db|-0----0----0----------0----0---0-------0-------0-------0-------0----------| x2

then just play this a whole bunch of times:
Eb|----------|
Bb|----------|
Gb|----------|
Db|----------|
Ab|0-11-0-11-|
Db|0----0----|
Comments