Blindside - Follow You Down Chords & Tabs

 

Follow You Down Chords & Tabs

Blindside Chords & Tabs

Version: 2 Type: Tab 0 ratings
1 star 2 stars 3 stars 4 stars 5 stars
comments

Follow You Down Tab

   
Follow You Down
by Blindside
c2004 Elektra Records

I noticed the other version didn't sound quite right,
so here's my version...

Db tuning

Intro

Eb--------------------------------------|
Bb--------------------------------------|
Gb------------7-10-9-----------7-10-6-7-|
Db--0-3-0-3-0-x-x--x-0-3-0-3-0-x-x--x-x-|
Ab--0-3-0-3-0-5-8--7-0-3-0-3-0-5-8--4-5-|
Db--0-3-0-3-0--------0-3-0-3-0----------|

Verse

Eb-----
Bb-----
Gb--7--
Db--x--
Ab--5--
Db-----

Pre-Chorus
[ Tab from: http://www.guitartabs.cc/tabs/b/blindside/follow_you_down_tab_ver_2.html ]
Eb--------------------|
Bb--------------------|
Gb--7-----------7--3--|
Db--7--8--3--5--x--x--|
Ab--5--8--3--5--5--1--|
Db-----8--3--5--------|

Chorus

Eb--------|
Bb--------|
Gb--5-----|
Db--5--1--|
Ab--3--1--|
Db-----1--|

Bridge

Eb-----------------------------------------------------------------------|
Bb-----------------------------------------------------------------------|
Gb----15-17-14---16---15---17-19-14---11-10-----13-13---13-13---13-13----|
Db--0--x--x--x-0--x-0--x-0--x--x--x-0-x-0-x-0-0--x--x-0--x--x-0--x--x-0--|
Ab--0-13-15-12-0-14-0-13-0-15-17-12-0-9-0-8-0-0-11-11-0-11-11-0-11-11-0--|
Db--0----------0----0----0----------0---0---0-0-------0-------0-------0--|

That should be pretty close. Thanks to AMdeluxFAtStrat over at CGR for
help with the bridge.
Comments