Blindside - Follow You Down Chords & Tabs

 

Follow You Down Chords & Tabs

Blindside Chords & Tabs

Version: 1 Type: Tab 0 ratings
1 star 2 stars 3 stars 4 stars 5 stars
comments

Follow You Down Tab

   
----------------------------------------------------------------------------
			Follow You Down by Blindside
----------------------------------------------------------------------------
Tabbed by: cky583 (Richard Ortiz)
Email: cortiz@columbus.rr.com

Tuning: Drop-D 1/2 Step Down (low to high) Db Ab Db Gb Bb eb

INTRO
eb|------------------------------------------------------------------------|
Bb|------------------------------------------------------------------------|
Gb|----------7---7-10-10-10-10-9-9-9-9-6-6---------------------------------|
Db|0-3-0-5-0-x---x-x--x--x--x--x-x-x-x-x-x---------------------------------|
Ab|0-3-0-5-0-5---5-8--8--8--8--7-7-7-7-4-4---------------------------------|
Db|0-3-0-5-0---------------------------------------------------------------|

eb|------------------------------------------------------------------------|
Bb|------------------------------------------------------------------------|
Gb|----------7---7-10-10-10-10-9-9-9-9-6-6-6-6-6-6-6-6-6-6-6-6-6-6-7-------|
Db|0-3-0-5-0-x---x-x--x--x--x--x-x-x-x-x-x-x-x-x-x-x-x-x-x-x-x-x-x-x-------|
Ab|0-3-0-5-0-5---5-8--8--8--8--7-7-7-7-4-4-4-4-4-4-4-4-4-4-4-4-4-4-5-------|
Db|0-3-0-5-0---------------------------------------------------------------|

[ Tab from: http://www.guitartabs.cc/tabs/b/blindside/follow_you_down_tab.html ]
VERSE (PALM MUTED) I'm not sure if this is just bass
eb|------------------------------------------------------------------------|
Bb|------------------------------------------------------------------------|
Gb|------------------------------------------------------------------------|
Db|000-000-000-000---------------------------------------------------------|
Ab|000-000-000-000-(x?)----------------------------------------------------|
Db|000-000-000-000---------------------------------------------------------|
   ...............

CHORUS PT.I "..but this time I'm not gonna follow you down"
eb|-----------------------------------------------------------------------|
Bb|-----------------------------------------------------------------------|
Gb|-----------------------------------------------------------------------|
Db|555--333--111--000-----------------------------------------------------| 
Ab|555--333--111--000-----------------------------------------------------|
Db|555--333--111--000-----------------------------------------------------|

CHORUS PT.II "..I fall in love with the sound"
eb|------------------------------------------------------------------------|
Bb|------------------------------------------------------------------------|
Gb|------------------------------------------------------------------------|
Db|10-10-10-10-10-10-10---1-1-1-1-1-1-1------------------------------------|
Ab|10-10-10-10-10-10-10---1-1-1-1-1-1-1------------------------------------|
Db|10-10-10-10-10-10-10---1-1-1-1-1-1-1------------------------------------|


Just email me with any corrections or suggestions if you have any, but I think it's pretty accurate

| .  palm mute
| /  slide up
| \  slide down
| h  hammer-on
| p  pull-off
| ~  vibrato
| +  harmonic
| x  Mute note
============================================================================
Comments