Blindside - Fell In Love With The Game Chords & Tabs

 

Fell In Love With The Game Chords & Tabs

Blindside Chords & Tabs

Version: 1 Type: Bass Tab

Fell In Love With The Game Bass Tab

   
-Intro-

G---------------------------------------------------------------|
D---------------------------------------------------------------|
A---------------------------------------------------------------|
E---------------------------------------------------------------|
B-1-1-1-0-0-0-4-4-4-5-5-5-5-5-5-5-1-1-1-0-0-0-4-4-4-5-5-5-5-5-5-|

-verse 1-

G-----------------------------------------|
D-----------------------------------------|
A-----------------------------------------|
E-----------------------------------------|
B-5-5-5-5-5-5-5-5-1-1-1-0-0-0-4-4-4-5-5-5-|

G-----------------------------------------|
D-----------------------------------------|
A-----------------------------------------|
E-----------------------------------------|
B-5-5-5-5-5-5-5-5-1-1-1-0-0-0-4-4-4-5-5-5-|

G-----------------------------------------|
D-----------------------------------------|
A-----------------------------------------|
E-----------------------------------------|
B-5-5-5-5-5-5-5-5-1-1-1-0-0-0-4-4-4-5-5-5-|

G---------------------------------|
D---------------------------------|
A---------------------------------|
E---------------------------------|
B-5-5-5-5-5-5-5-5-5-5-5-5-5-5-5-5-|

-chorus-
[ Tab from: http://www.guitartabs.cc/tabs/b/blindside/fell_in_love_with_the_game_btab.html ]
G---------------------------------------------------------------------------------|
D---------------------------------------------------------------------------------|
A-----------------------------------3-3-3-3-2-2-2-2-7-7-5-7-5-7-5-7-7-5-7-5-7-5-7-|
E-3-3-3-3-3-3-3-5-5-0-0-0-0-3-3-3-3-----------------------------------------------|
B---------------------------------------------------------------------------------|

verse 2 (same as verse 1)
chorus 2 (same as chorus 1)

-Bridge-

G--------------------------------------------------------------------|
D--------------------------------------------------------------------|
A--------------------------------------------------------------------|
E--------------------------------------------------------------------|
B-1-1-1-1-1-----5-5-0-0-1-1-1-1-1----5-50-0-1-1-1-1-1-----5-5-0-0-|

G---------------------------------|
D---------------------------------|
A---------------------------------|
E0-77-0-7-0-7-07---7-0-7-0-7-0-|
B---------------------------------|

-verse 3 (same as verse 1 and 2)
-chorus 3 (same as chorus 1 and 2)

-outro-
G---------------------------------|
D---------------------------------|
A---------------------------------|
E---------------------------------|
B-1-1-1-0-0-0-4-4-4-5-5-5-5-5-5-5-|

G---------------------------------|
D---------------------------------|
A---------------------------------|
E---------------------------------|
B-1-1-1-0-0-0-4-4-4-5-5-5-5-5-5-5-|

G---------------------------------|
D---------------------------------|
A---------------------------------|
E---------------------------------|
B-1-1-1-0-0-0-4-4-4-5-5-5-5-5-5-5-|

G---------------------------|
D---------------------------|
A---------------------------|
E---------------------------|
B-1-1-1-0-0-0-4-4-4-5-5-5-5-|(hold out)