Blindside - Coming Back To Life Chords & Tabs

 

Coming Back To Life Chords & Tabs

Blindside Chords & Tabs

Version: 1 Type: Bass Tab 0 ratings
1 star 2 stars 3 stars 4 stars 5 stars
comments

Coming Back To Life Bass Tab

Drop D tuning

(Verse)
G|-----------------------------------------------------|
D|-----------------------------------------------------|
A|-----------------2-4-2-22-1-2-1----------------------|
D|--66----0-2-4----------------------------------------|
	
G|-----------------------------------------------------|
D|-----------------------------------------------------|
A|-----------------2-4-2-222121------------------------|
D|--66----0-2-4------------------6420------------------|

G|-----------------------------------------------------|
D|-----------------------------------------------------|
A|--------------44444444-------------------------------|
D|--00000000-------------------------------------------|
[ Tab from: http://www.guitartabs.cc/tabs/b/blindside/coming_back_to_life_btab.html ]
G|-----------------------------------------------------|
D|-----------------------------------------------------|
A|-----------------------------------------------------|
D|--3-------333313431---3------------------------------|

(Chorus)
G|-----------------------------------------------------|
D|-----------------------------------------------------|
A|-----------------2-222-------------------------------|
D|--8-8-8-6-4-4---------222-6--------------------------|

G|-----------------------------------------------------|
D|-----------------------------------------------------|
A|-----------------2-222--------4----------------------|
D|--8-8-8-6-4-4---------2222---------------------------|

G|-----------------------------------------------------|
D|----------3-2-----------------------------3-2--------|
A|--1-111------6--4-44-4-1-6-4-1-222-1-------6-4-44----|
D|-----------------------------------------------------|

(Bridge)
G|-----------------------------------------------------|
D|-----------------------------------------------------|
A|---------1-11-2-22-444---------1-11-2-22--121--------|
D|--6-66---------------------6-66-------------------4--|
Comments