Blindside - Caught A Glimpse Chords & Tabs

 

Caught A Glimpse Chords & Tabs

Blindside Chords & Tabs

Version: 3 Type: Tab 0 ratings
1 star 2 stars 3 stars 4 stars 5 stars
comments

Caught A Glimpse Tab

Title:  Caught A Glimpse
Artist:  Blindside
Album:  Silence
Tabbed by:  Andrew Jackson
Tuning: Drop C(C-G-C-F-A-d)

Intro:
d|----------------------------------
A|----------------------------------
F|---------2---3---0---2---2---2---2
C|-3-2-0-----0---0---0---0---0---0--
G|----------------------------------
C|-------0--------------------------

d|-----------------------------------
A|-----------------------------------
F|---------2---3---/7---7---7---7---7
C|-3-2-0-----0---0----0---4---4---4--
G|-----------------------------------
C|-------0---------------------------

Verse:  Play this riff 4 times

d|----------------------------------------------------------|
A|----------------------------------------------------------|
F|------------------7-------8-------12-------11-------------|
C|--5---4---3---0---7---0---8---0---12---0----X-------------|
G|--5---4---3---0---5---0---6---0---10---0----9-{x14}-------|
C|--5---4---3---0-------0-------0--------0------------------|

Riff before Chorus:

d|----------------------------------------------------------|
A|----------------------------------------------------------|
F|----------------------------------------------------------|
C|--7---8---7---0---5---0---5---3---0-----------------------|
G|--7---8---7---0---5---0---5---3---0-----------------------|
C|--7---8---7---0---5---0---5---3---0-----------------------|

Chorus:

d|----------------------------------------------------------|
A|--10-------11---8-----------------------------------------|
F|---X--------X---X-----------------------------------------|
C|---7-{7X}---8---5---7---8---7---0---5---0---5---3---0-----|
G|--------------------7---8---7---0---5---0---5---3---0-----|
C|--------------------7---8---7---0---5---0---5---3---0-----|
[ Tab from: http://www.guitartabs.cc/tabs/b/blindside/caught_a_glimpse_tab_ver_3.html ]
d|--1---3---------------------------------------------------|
A|--1---3---------------------------------------------------|
F|--3---5---------------------------------------------------|
C|--3---5---7---8---7---0---5---0---5---3---0---------------|
G|--1---3---7---8---7---0---5---0---5---3---0---------------|
C|----------7---8---7---0---5---0---5---3---0---------------|

d|----------------------------------------------------------|
A|--10-------11---8-----------------------------------------|
F|---X--------X---X-----------------------------------------|
C|---7-{7X}---8---5---7---8---7---0---5---0---5---3---0-----|
G|--------------------7---8---7---0---5---0---5---3---0-----|
C|--------------------7---8---7---0---5---0---5---3---0-----|

d|--1---1---0---3-------------------------------------------|
A|--1---1---2---3-------------------------------------------|
F|--3---3---2---5---7---------------------------------------|
C|--3---3---2---5---5---------------------------------------|
G|--1---1---0---3---5---------------------------------------|
C|------------------5---------------------------------------|

Play this riff in second verse after third riff:

d|----------------------------------------------------------|
A|----------------------------------------------------------|
F|----------------------------------------------------------|
C|----------------------------------------------------------|
G|--8-7-5---------------------------------------------------|
C|--------0-5-0---------------------------------------------|

Break:

d|----------------------------------------------------------|
A|----------------------------------------------------------|
F|----------6---6/7---7---------8---8--X--X---7---8---8-----|
C|--0---0---6---6/7---7---------6---6--X--X---5---6---6-----|
G|--0---0---4---4/5---5-{12X}---6---6--X--X---5---6---6-----|
C|--0---0-----------------------6---6--X--X---5---6---6-----|

d|----------------------------------------------------------|
A|----------------------------------------------------------|
F|-X--X---7--10---------------------------------------------|
C|-X--X---5---8---------------------------------------------|
G|-X--X---5---8---------------------------------------------|
C|-X--X---5---8-{9X)----------------------------------------|
Comments