Blindside - Caught A Glimpse Chords & Tabs

 

Caught A Glimpse Chords & Tabs

Blindside Chords & Tabs

Version: 1 Type: Bass Tab 0 ratings
1 star 2 stars 3 stars 4 stars 5 stars
comments

Caught A Glimpse Bass Tab

   
tuning C,G,C,F

(Intro)
F|------------------------------------|
C|------------------------------------|
G|------------------------------------|
C|-------1~~~~~~----------------------|

F|------------------------------------|
C|------------------------------------|
G|------------------------------------|
C|-------1~---------------------------|

(Verse)
F|----------------------------------------------------------|
C|----------------------------------------------------------|  x4
G|------------------6-------7-------11-------10-{x14}-------|
C|--6---5---4---1-------1-------1--------1------------------|

F|----------------------------------------------------------|
C|----------------------------------------------------------|
G|----------------------------------------------------------|
C|--8---9---8---1---6---1---6---4---1-----------------------|

(Chorus)
F|----------------------------------------------------------|
C|---8-{7X}---9---6-----------------------------------------|
G|----------------------------------------------------------|
C|--------------------8---9---8---1---6---1---6---4---1-----|
[ Tab from: http://www.guitartabs.cc/tabs/b/blindside/caught_a_glimpse_btab.html ]
F|----------------------------------------------------------|
C|----------------------------------------------------------|
G|--2---4---------------------------------------------------|
C|----------8---9---8---1---6---1---6---4---1---------------|

F|----------------------------------------------------------|
C|---8-{7X}---9---6-----------------------------------------|
G|----------------------------------------------------------|
C|--------------------8---9---8---1---6---1---6---4---1-----|

F|----------------------------------------------------------|
C|----------------------------------------------------------|
G|--2---2---1---4---6---------------------------------------|
C|------------------6---------------------------------------|

F|----------------------------------------------------------|
C|----------------------------------------------------------|
G|--9-8-6---------------------------------------------------|
C|--------1-6-1---------------------------------------------|

F|----------------------------------------------------------|
C|----------------------------------------------------------|
G|----------5---5/6---6-{12X}-------------------------------|
C|--1---1-----------------------7---7--X--X---6---7---7-----|

F|----------------------------------------------------------|
C|----------------------------------------------------------|
G|----------------------------------------------------------|
C|-X--X---6---9-{9X)----------------------------------------|

Thankse, please rate it after you learn it.
Comments