Blindside - All Of Us Chords & Tabs

 

All Of Us Chords & Tabs

Blindside Chords & Tabs

Version: 1 Type: Bass Tab 0 ratings
1 star 2 stars 3 stars 4 stars 5 stars
comments

All Of Us Bass Tab

Verse
|----------------------------------------------------------------||
|-----3-3-3------------------------------------------------------||
|3h5-5------1-1-1-------1-0-1-0---------------------1-0-1-0-1-0--||
|-----------------3-3-3---------1h3-3-1-1h3-1h3-3-3--------------||

Chorus
|------------------------------------------------------||
|------------320---------------------------------------||
|555555555555---311111111------555555555b~-------------||
|------------------------111000------------------------||

|----------------||
|----------------||
|----------------||
|5555555533311111||
[ Tab from: http://www.guitartabs.cc/tabs/b/blindside/all_of_us_btab.html ]
|------------------------------------------------------||
|------------320---------------------------------------||
|555555555555---311111111------555555555b~-------------||
|------------------------111000------------------------||

Bridge
|---------------------------------||
|--------------3333222222222222553||
|3h555555555555-------------------||
|---------------------------------||

|-----------2h3p2-----------------||
|----------------5----------------||
|55555555555------3333333333333333||
|---------------------------------||

Verse x5
Chorus x1
Verse x3
Chorus x1
Bridge x1
Chorus X2

this is my first tab but i think its right. if you have any corrections tell me.
Comments