Blind Zero - Shine On Chords & Tabs

 

Shine On Chords & Tabs

Blind Zero Chords & Tabs

Version: 1 Type: Tab 0 ratings
1 star 2 stars 3 stars 4 stars 5 stars
comments

Shine On Tab

   
-------------------------------------------------------------------------------
			     SHINE ON - Blind Zero
-------------------------------------------------------------------------------
Tabbed by: Seattlellite
Email: ruivalentim@msn.com
Artist: Blind Zero
Song: Shine On

Tuning: Standard

Chords used:

       EADGBe
E     (022100)
F#    (244222)
A     (577655)

Intro: F# E A

Bass:

G|-----------------------------------------------------|
D|-----------------------------------------------------|
A|-----------------------------------------------------|
E|----2-2-2-----------0-0-0-----------5-5-5------------|


Guitar:

	F#		E		A
e|-----------------------------------------------------|
B|-----------------------------------------------------|
G|-----------------------------------------------------|
D|------4---------------2---------------7--------------|
A|------4---------------2---------------7--------------|
E|------2---------------0---------------5--------------|


Verse:

	F#		E		A
e|-----------------------------------------------------|
B|-----------------------------------------------------|
G|-----------------------------------------------------|
D|------4---------------2---------------7--------------|
A|------4---------------2---------------7--------------|
E|------2---------------0---------------5--------------|


Shine On...

Arpeggio
[ Tab from: http://www.guitartabs.cc/tabs/b/blind_zero/shine_on_tab.html ]
	F#		 E		A
e|------0----------------0--------------0--------|
B|------0----------------0--------------0--------|
G|------3----------------1--------------6--------|
D|------4----------------2--------------7--------|
A|------4----------------2--------------7--------|
E|------2----------------0--------------5--------|


Distortion   "you defy..I remain...."


	F#		 E		A
e|------2-------------------------------5--------|
B|------2-------------------------------5--------|
G|------3----------------1--------------6--------|
D|------4----------------2--------------7--------|
A|------4----------------2--------------7--------|
E|------2----------------0--------------5--------|


Solos:


e|----------------|----------------|-------------------------|
B|----------------|----------------|-------------------------|
G|---------9h11b--|---------9------|-------------------------|
D|---9h11---------|--9h11------11b-|--9h11--9--7---9h7-------|
A|----------------|----------------|---------------------9b--|
E|----------------|----------------|-------------------------|


e|----------------|----------------|--------------------|--------------------------|
B|----------------|----------------|--------------------|--------------------------|
G|---------9h11b--|--11/13-11------|---------9----------|--------------------------|
D|---9h11---------|----------------|---9h11-----11b-----|--9h11--9--7---9h7--------|
A|----------------|----------------|--------------------|----------------------9b--|
E|----------------|----------------|--------------------|--------------------------|


e|-----------------------------------------|--------------------------------------------|
B|-----------------------------------------|--------------------------------------------|
G|--13--14--13----11--9--11s13---14---16---|--13--14--13----11--9--11s13---14---16s18b--|
D|-----------------------------------------|--------------------------------------------|
A|-----------------------------------------|--------------------------------------------|
E|-----------------------------------------|--------------------------------------------|
Comments