Blind Melon - Toes Across The Floor Chords & Tabs

 

Toes Across The Floor Chords & Tabs

Blind Melon Chords & Tabs

Version: 1 Type: Tab 0 ratings
1 star 2 stars 3 stars 4 stars 5 stars
comments

Toes Across The Floor Tab

#----------------------------------PLEASE NOTE--------------------------------#
#This file is the author's own work and represents their interpretation of the#
#song. You may only use this file for private study, scholarship, or research.#
#-----------------------------------------------------------------------------#
#-- File created with Instab - http://www.pconline.com/~smcarey/instab.html --#
#-----------------------------------------------------------------------------#

Author/Artist: Blind Melon
Title: Toes Across The Floor
Album: Soup
Transcribed by: Rick S.
Email: ricksloukji@hotmail.com

Cool Single off Soup.
[ Tab from: http://www.guitartabs.cc/tabs/b/blind_melon/toes_across_the_floor_tab.html ]
-0-0-0-0-0-0-0----------0-----------------------------------------------------
-6-6-6-6-6-6-6/8-h-10-8-6-----------------------------------------------------
-7-7-7-7-7-7-7/9--------7-----------------------------------------------------
-0-0-0-0-0-0-0----------------------------------------------------------------
------------------------------------------------------------------------------
------------------------------------------------------------------------------
 Verse. Chorus Chords are : G, F, D                                           

------------------------------------------------------------------------------
-10-10-10-10-10/13-10-10-10/13-10-10-10-10-10/13-10/13-10---------------------
--7--7--7--7--7-10--7--7--7-10--7--7--7--7--7-10--7-10--7---------------------
------------------------------------------------------------------------------
------------------------------------------------------------------------------
------------------------------------------------------------------------------
 Post-Chorus                                                                  

Comments