Blind Melon - Soup Chords & Tabs

 

Soup Chords & Tabs

Blind Melon Chords & Tabs

Version: 2 Type: Tab 0 ratings
1 star 2 stars 3 stars 4 stars 5 stars
comments

Soup Tab

Soup
----
Blind Melon
----
Nico

This tab is 100% accurate.

E|-0h2---4-2------------4-------0---------------5-------------|
B|-0------------------5-------0-------0-------2-----0---0-----|
G|----------------4-------------------------------------------|
D|------------4h6---2---------------1---2/4-------------------|
A|------------------------4-2-----4---------0-----0---0---2-4-|
E|-0---0------------------------------------------------------|

E|------------4-------0---------------5-----------------------|
B|----------5-------0-------0-------2-----0---0---------------|
G|-------4----------------------------------------------------|
D|---4h6---2---------------1---2/4----------------------------|
A|--------------4-2-----4---------0-----0---0---2-4-----------|
E|------------------------------------------------------------|

E|-------4----4-----5-----7-----5-----4-----------------------|
B|-------5-5----5-----5-----5-----5-----5---2h4-------2h4-----|
G|----------------------------------------------4-2-1-----4-2-|
D|------------------------------------------------------------|
A|------------------------------------------------------------|
E|-------0---0----0-----0-----0-----0-----0-------------------|

E|---4----4-----5-----7-----5-----4---------------7-7-5-(5\4/5\4)---|
B|---5-5----5-----5-----5-----5-----5---2h4-------------------------|
G|------------------------------------------4-2-1-------------------|
D|------------------------------------------------------------------|
A|------------------------------------------------------------------|
E|---0---0----0-----0-----0-----0-----0-----------------------------|

E|------------4-------0---------------5-----------------------|
B|----------5-------0-------0-------2-----0---0---------------|
G|-------4----------------------------------------------------|
D|---4h6---2---------------1---2/4----------------------------|
A|--------------4-2-----4---------0-----0---0---2-4-----------|
E|------------------------------------------------------------|
[ Tab from: http://www.guitartabs.cc/tabs/b/blind_melon/soup_tab_ver_2.html ]
E|------------4-------0---------------5-------------0---------|
B|----------5-------0-------0-------2-----0---0-----0---------|
G|-------4------------------------------------------1---------|
D|---4h6---2---------------1---2/4------------------2---------|
A|--------------4-2-----4---------0-----0---0---2-4-2---------|
E|--------------------------------------------------0---------|

E|------4-----5-----7-----5-----4-----------------------|
B|--------5-----5-----5-----5-----5---2h4-------2h4-----|
G|----------------------------------------4-2-1-----4-2-|
D|------------------------------------------------------|
A|------------------------------------------------------|
E|----------0-----0-----0-----0-----0-------------------|

E|---4----4-----5-----7-----5-----4---------------7-7-5-(5\4/5\4)---|
B|---5-5----5-----5-----5-----5-----5---2h4-------------------------|
G|------------------------------------------4-2-1-------------------|
D|------------------------------------------------------------------|
A|------------------------------------------------------------------|
E|---0---0----0-----0-----0-----0-----0-----------------------------|

E|-0h2---4-2------------4-------0---------------5-------------|
B|-0------------------5-------0-------0-------2-----0---0-----|
G|----------------4-------------------------------------------|
D|------------4h6---2---------------1---2/4-------------------|
A|------------------------4-2-----4---------0-----0---0---2-4-|
E|-0---0------------------------------------------------------|

E|------------4-------0---------------5-----------------------|
B|----------5-------0-------0-------2-----0---0---------------|
G|-------4----------------------------------------------------|
D|---4h6---2---------------1---2/4----------------------------|
A|--------------4-2-----4---------0-----0---0---2-4-----------|
E|------------------------------------------------------------|

E|----------------------------0--0--0--0--0--0--2--0----------|
B|---------------2-2-----4----2--4--2--4--0--2--3--0----------|
G|-----------1----------------2--4--2--4--1--2--2--1----------|
D|-----1-2-4-----------6---6-----4--2--4--2--2--0--2----------|
A|-2-4------------------------0--0--0--0--2--0--0--2----------|
E|-------------2-----4-----------0--0--0--0--0--0--0----------|

It'll help to listen to the song first while reading the tab to figure out the rhythm, 
overall its a fairly easy song.
E-mail: TJA8679@netscape.net
Comments