Blind Melon - Soup Chords & Tabs

 

Soup Chords & Tabs

Blind Melon Chords & Tabs

Version: 1 Type: Tab 0 ratings
1 star 2 stars 3 stars 4 stars 5 stars
comments

Soup Tab

#----------------------------------PLEASE NOTE---------------------------------#
#This file is the author's own work and represents their interpretation of the #
#song. You may only use this file for private study, scholarship, or research. #
#------------------------------------------------------------------------------#

tabbed by joel1984_@hotmail.com
feel free to email me for whatever reason.
very cool song! the only other version of this tab i could find sucked, so here you are...
enjoy!

BLIND MELON - soup

e|---0h2--4~2-----|
B|----------------|
G|----------------|
D|---2--------x---|
A|--x---------x---|
E|-0----0-----x-x-|

|-----------0-4-----0-----0-----------------5-0-----------------|
|-----------------------0------0---0------2-------2---0---0-----|
|-.-----4-----------------------------------------------------.-|
|-.-4/6---2---------------------1---2/4-----------------------.-|
|---------------4-----2-----4-----------0-------0---0---2---4---|
|---------------------------------------------------------------|

|-0h2---4-2---5-2---7-2---5-2---4-2---------------------|
|-0------------------------------------2/4--------------| play twice.
|--------------------------------------------4-2-1------| first time end with (1)
|-------------------------------------------------------| second time end with (2)
|-------------------------------------------------------|
|-0---0-----0-----0-----0-----0-----0-----0-----0-----0-|

(1) |-----------|  (2) |-7-7-5--5\4-5\4---|
    |-2/4-------|      |----------------5-|
    |-------4-2-|      |------------------|
    |-----------|      |------------------|
    |-----------|      |------------------|
    |-----0-----|      |----0-------------|
[ Tab from: http://www.guitartabs.cc/tabs/b/blind_melon/soup_tab.html ]
|-----------0-4-----0-----0-----------------5-0-----------------|-0-|
|-----------------------0------0---0------2-------2---0---0-----|-0-|
|-.-----4-----------------------------------------------------.-|-1-|
|-.-4/6---2---------------------1---2/4-----------------------.-|-2-|
|---------------4-----2-----4-----------0-------0---0---2---4---|-2-|
|---------------------------------------------------------------|-0-|    

|-0h2---4-2---5-2---7-2---5-2---4-2---------------------|
|-0------------------------------------2/4--------------| play twice.
|--------------------------------------------4-2-1------| first time end with (1)
|-------------------------------------------------------| second time end with (2)
|-------------------------------------------------------|
|-0---0-----0-----0-----0-----0-----0-----0-----0-----0-|

(1) |-----------|  (2) |-7-7-5--5\4-5\4---|
    |-2/4-------|      |----------------5-|
    |-------4-2-|      |------------------|
    |-----------|      |------------------|
    |-----------|      |------------------|
    |-----0-----|      |----0-------------|
all over a bowl of bitter beans...
all over a bowl of bitter beans...


|-----------0-4-----0-----0-----------------5-0-----------------|
|-----------------------0------0---0------2-------2---0---0-----|
|-.-----4-----------------------------------------------------.-|
|-.-4/6---2---------------------1---2/4-----------------------.-|
|---------------4-----2-----4-----------0-------0---0---2---4---|
|---------------------------------------------------------------|
|---------------0---0--------------------0-|
|---0---0-------------------2-2-----4----x-|
|---------------------1-----2-2---4---4--2-|
|---------1---2---4----------------------2-|
|-2---4----------------------------------0-|
|-------------------------2-----4----------|


*order of chords only... strumming not shown*

|-0---0----0-0---0----0----0-0-|
|-4\2-2----4-4\2-2----0----0-0-|
|-4\2-2----4-4\2-2----1----4-1-|
|-4\2-2----4-4\2-2----2----4-2-|
|-0---0----0-0---0----2----0-2-|
|---------------------0------0-| x3


|-0---0----2----0----0----0----0----0----0----2----0-|
|-4\2-2----3----0----2----0----2----0----2----3----0-|
|-4\2-2----2----1----2----1----2----1----2----2----1-|
|-4\2-2----0----2----2----2----2----2----2----0----2-|
|-0---0---------2----0----2----0----2----0---------2-|
|---------------0---------0---------0--------------0-|

Comments