Blind Melon - Sleepyhouse Chords & Tabs

 

Sleepyhouse Chords & Tabs

Blind Melon Chords & Tabs

Version: 1 Type: Bass Tab 0 ratings
1 star 2 stars 3 stars 4 stars 5 stars
comments

Sleepyhouse Bass Tab

Sleepyhouse bass tab
written by Blind Melon
tab by Jason Miller (Millz) 
http://hubcap.clemson.edu/~jamille/

Arranged for four string/normal tuning.

part 1 (start)

G ---------------------------------------------------
D ---------------4-2-0--------repeat-----------------
A -5-0-5-0-5-5-0---------2/--------------------------
E ---------------------3-----------------------------


part 2          part 3
--------------|-------------------------------------
--------------|-------------------------------12--12
---------2-3-5|--5h-7-7-7h-9-9-9h-10-12--0-12----0--
-1--3--5------|-------------------------------------

[ Tab from: http://www.guitartabs.cc/tabs/b/blind_melon/sleepyhouse_btab.html ]
---------------------------------------------------
-14-12--------repeat part 3------------------------
-------14\-----------------------------------------
---------------------------------------------------


part 4  "feeling fine..." 1:34
---------------------------------------------------
-----------------3----------------------repeat once
--5--0-0-0--3-5-5-5-5-7-9-7-5-3-3-5-0--3-5---------
---------------------------------------------------

2:00 (repeats)     part 5 3:03
------------|-----------------------------------------
------------|-----------------------------------------
--0-3-5-----|-5-5-5-7-7-7-9-9-9-10-10-10--5/-7-5-3-5--
------------|-----------------------------------------


---------------------------------------------------
-repeat once then--0-3-5-7-5-3-0-3-5-5-------------
---------------------------------------------------
---------------------------------------------------
Comments