Blind Melon - No Rain Chords & Tabs

 

No Rain Chords & Tabs

Blind Melon Chords & Tabs

Version: 8 Type: Tab 0 ratings
1 star 2 stars 3 stars 4 stars 5 stars
comments

No Rain Tab

   
Song: No Rain
Artist: Blind Melon
Tabbed By: Jerry Tran
Email: worldzop@yahoo.com
Comments: Complete Song
=========================

	   1  	      2   3          4            5	     6		    
	e:||----------|-0-|----------|-----0------|---0------|--------------|
	B:||----------|-0-|----------|-----0------|---0------|----9-9-----7-|
gtr 1	G:||----------|-1-|----------|-----1------|---0------|----9-9--x--7-|
	D:||----------|-2-|----------|-----2------|----------|----9-9--x--7-|
	A:||----------|-2-|----------|-----2------|----------|----7-------5-|
	E:||----------|-0-|----------|-----0------|----------|--0-----------|
	  ||INTRO
	e:||----------|---|----------|------------|----------|--------------|
	B:||-10-10/12-|---|-10-10/12-|------------|-10-10/12-|-----10-9-----|
gtr 2	G:||----------|-9-|----------|-----9------|----------|--9-------11--|
	D:||----------|---|----------|------------|----------|--------------|
	A:||----------|---|----------|------------|----------|--------------|
	E:||----------|---|----------|------------|----------|--------------|
	  ||            
	G:||----------|---|----------|------------|----------|--------------|
bass	D:||----------|---|----------|---4-6--7---|--7-------|---4-4-6--7---|
	A:||----------|-7-|----------|-7--------5-|----4--5--|-7----------5-|
	E:||----------|---|----------|------------|----------|--------------|



7              8             9               10                 
|--------------|-------------|---------------|------------------|
|-7-x-7--7-7---|---9--9-x-7--|-7---7--7--7---|-----9-9--9-9---7-|
|-7-x-7--7-7---|---9--9-x-7--|-7-x-7--7--7---|---x-9----9-9-x-7-|
|-7-x-7--7-7/9-|---9--9-x-7--|-7-x-7--7--7/9-|---x-9----9-9-x-7-|
|-----5----5/7-|----------5--|-5-x-5--5--5/7-|---x-7--------x-5-|
|--------------|-0-----------|---------------|-0----------------|
|
|--------------|-------------|---------------|------------------|
|--------------|----10-9-----|---------------|------10-9--------|
|-9--7--7--9-7-|-9--------11-|-9--7--7--9-7--|--9----------11---|
|--------------|-------------|---------------|------------------|
|--------------|-------------|---------------|------------------|
|--------------|-------------|---------------|------------------|
|
|--------------|-------------|---------------|------------------|
|-7------------|----4-6--7---|-7-------------|-----4-4-6--7-----|
|-----4---5----|-7---------5-|-----4---5-----|--7-----------5---|
|--------------|-------------|---------------|------------------|



11		 12                   13               14             
|--------------0-|--------------------|--------------0-|----0--0----0-|
|-7----7--7--7-0-|------9-9--9-9----7-|-7----7--7--7-0-|----0--0--0-0-|
|-7--x-7--7--7-0-|---x--9----9-9--x-7-|-7--x-7--7--7-0-|----1--1--1-1-|
|-7--x-7--7--7---|---x--9----9-9--x-7-|-7--x-7--7--7---|----2-----2-2-|
|-5--x-5-----5---|---x--7---------x-5-|-5--x-5-----5---|----2---------|
|----------------|-0------------------|----------------|-0--0---------|
|                                                       CHORUS 1
|----------------|--------------------|-9h10-9---------|--------------|
|----------------|------10-9---10-10--|---------10-----|--------------|
|--9--7--7--9-7--|--9-----------------|-------------9--|-------9------|
|----------------|--------------------|----------------|--------------|
|----------------|--------------------|----------------|--------------|
|----------------|--------------------|----------------|--------------|
|                                                        
|----------------|--------------------|----------------|--------------|
|--7-------------|--------4-6---7-----|-7--------------|--------------|
|------4---5-----|---7-------------5--|------4----5----|-------7------|
|----------------|--------------------|----------------|--------------|
							 all i can say


15               16             17                 18             
|-0----0--0--0---|----2--2--x-2-|--2--x-2---2----0-|----0--0--0-0-|
|-0----0--0--0---|----3--3--x-3-|--3--x-3---3----0-|----2--2--2-2-|
|-1--1-1--1--0---|-2--2--2--x-2-|--2--x-2---2--0-0-|-2--2--2--2-2-|
|----2-2--2--2p0-|-0--0---------|-----0-----0--0-0-|-2--2--2--2-2-|
|----2-------2---|----0---------|--------------0---|-0--------0-0-|
|----0-------0---|--------------|------------------|------------0-|
|
|----------------|--------------|------------------|--------------|
|----9-10----9---|--------------|-----9h10---------|--------------|
|----------------|------7-------|------------7-----|--------------|
|----------------|--------------|------------------|------7-------|
|----------------|--------------|------------------|--------------|
|----------------|--------------|------------------|--------------|
|                  
|----------------|--------------|------------------|--------------|
|----------------|-----------7--|------------------|--------------|
|----------------|-5-------5-5--|----------------5-|--------------|
|----------------|--------------|------------------|--------------|
 is that my life is pretty plain         i like watching the puddles


19                20              21               22             
|-0----3---3------|-----0-------0-|----0-0-----0---|----0--0----0-|
|-2--0-3---3----0-|-----0--0----3-|-0--3-0--0--0---|----0--0--0-0-|
|-2--0-0---0--0-0-|-----1--1----1-|-1--1-1--1--1-1-|----1--1--1-1-|
|----0-0---0--0---|-----2-----2---|----2-2-----2-2-|----2-----2-2-|
|-----------------|-----2-----2---|------------2-2-|----2---------|
|------3---3------|-0---0---------|------------0---|-0--0---------|
|
|-----------------|---------------|----------------|--------------|
|-----------------|---------------|------0--x-0----|--------------|
|-----------------|---------------|------1--x-1----|-----9--------|
|----5------5-----|-----7h9-------|----------------|--------------|
|-----------------|---------------|----------------|--------------|
|-----------------|---------------|----------------|--------------|
|           
|-----------------|---------------|----------------|-----------9--|
|-----------------|---------------|----------------|--------9-----|
|-----------------|---7-----------|----------------|--7-----------|
|----3-----3--3---|-----------0---|----------------|--------------|
    gather rain                             and all    I can do 


23               24             25                26             
|-0----0--0--0---|----2--2--x-2-|-2--x-2---2----0-|----0--0--0-0-|
|-0----0--0--0---|----3--3--x-3-|-3--x-3---3----0-|----2--2--2-2-|
|-1--1-1--1--0---|-2--2--2--x-2-|-2--x-2---2--0-0-|-2--2--2--2-2-|
|----2-2--2--2p0-|-0--0---------|----0-----0--0-0-|-2--2--2--2-2-|
|----2-------2---|----0---------|-------------0---|-0--------0-0-|
|----0-------0---|--------------|-----------------|------------0-|
|
|----------------|--------------|-----------------|--------------|
|----------------|--------------|-----------------|--------------|
|----11-----11---|------7-------|----11-----11----|-------7------|
|----------------|--------------|-----------------|--------------|
|----------------|--------------|-----------------|--------------|
|----------------|--------------|-----------------|--------------|
|              
|----------------|--------------|-----------------|--------------|
|--------9-------|---------7----|----------7------|--------------|
|----------------|---5----------|----5--------5---|----------7---|
|----------------|--------------|-----------------|---5----------|
   is just pour some tea for two       and speak my point of view


27                28             29               30  31          
|-0----3---3------|----0-------0-|----0-0-----0---|-0-|-----0-----|
|-2--0-3---3----0-|----0--0----3-|-0--3-0--0--0---|-0-|-----0-----|
|-2--0-0---0--0-0-|----1--1----1-|-1--1-1--1--1-1-|-1-|-----0-----|
|----0-0---0--0---|----2-----2---|----2-2-----2-2-|-2-|-----------|
|-----------------|----2-----2---|------------2-2-|-2-|-----------|
|------3---3------|-0--0---------|------------0---|-0-|-----------|
|
|-----------------|--------------|----------------|---|-----------|
|-----------------|--------------|-----10---10h12-|---|-10--10h12-|
|-----------------|--------------|----------------|-9-|-----------|
|----5---5---5----|--------------|----------------|---|-----------|
|-----------------|------7-------|----------------|---|-----------|
|-----------------|--------------|----------------|---|-----------|
|            
|-----------------|------9---11--|--9-------------|---|-----------|
|-----------------|--------------|-----11----9/6--|---|-----------|
|-----------------|--7-----------|----------------|-7-|-----------|
|----3---3---3----|--------------|----------------|---|-----------|
 but it's not sane                  it's not      sane


32             33               34             35               
|--------------|----------------|--------------|----------------|
|----9--9----7-|-7--x-7--7--7---|----9--9--x-7-|-7----7--7--7---|
|----9--9--x-7-|-7--x-7--7--7---|----9--9--x-7-|-7--x-7--7--7---|
|----9--9--x-7-|-7--x-7--7--7/9-|----9--9--x-7-|-7--x-7--7--7/9-|
|----7-------5-|------5-----5/7-|------------5-|-5--x-5--5--5/7-|
|-0------------|----------------|-0------------|----------------|
|VERSE 1
|--------------|----------------|--------------|----------------|
|-----10-9-----|----------------|-----10-9-----|----------------|
|-9---------11-|--9--7--7--9-7--|--9--------11-|--9--7--7--9-7--|
|--------------|----------------|--------------|----------------|
|--------------|----------------|--------------|----------------|
|--------------|----------------|--------------|----------------|
|
|--------------|----------------|--------------|----------------|
|----4-6--7----|-7--------------|---4-4-6--7---|--7-------------|
|-7---------5--|-----4--4--5-5--|-7----------5-|------4---5-----|
|--------------|----------------|--------------|----------------|
 i just want    some______one to say    to me     no no no no


36                   37               38                   39
|--------------------|--------------0-|--------------------|-------------0-|
|------9-9--9-9----7-|-7----7--7--7-0-|------9-9--9-9----7-|-7---7--7--7-0-|
|---x--9----9-9--x-7-|-7--x-7--7--7-0-|---x--9----9-9--x-7-|-7-x-7--7--7-0-|
|---x--9----9-9--x-7-|-7--x-7--7--7---|---x--9----9-9--x-7-|-7-x-7--7--7---|
|---x--7---------x-5-|-5--x-5-----5---|---x--7---------x-5-|-5-x-5-----5---|
|-0------------------|----------------|-0------------------|---------------|
|
|--------------------|----------------|--------------------|-9h10-9--------|
|------10-9----------|----------------|------10-9---10-10--|--------10--9~-|
|--9-----------11----|--9--7--7--9-7--|--9-----------------|---------------|
|--------------------|----------------|--------------------|---------------|
|--------------------|----------------|--------------------|---------------|
|--------------------|----------------|--------------------|---------------|
|
|--------------------|----------------|--------------------|---------------|
|-----4--4-6--7------|---7------------|------4--4-6--7-----|--7------------|
|--7------------5----|--------4----5--|--7-------------5---|-------4----5--|
|--------------------|----------------|--------------------|---------------|
   i'll  always  be  there  when  you  wake            


40             41               42             43            
|--------------|----------------|-------------|----------------|
|----9--9----7-|-7--x-7--7--7---|---9--9-x-7--|-7----7--7--7---|
|----9--9--x-7-|-7--x-7--7--7---|---9--9-x-7--|-7--x-7--7--7---|
|----9--9--x-7-|-7--x-7--7--7/9-|---9--9-x-7--|-7--x-7--7--7/9-|
|----7-------5-|------5-----5/7-|----------5--|-5--x-5--5--5/7-|
|-0------------|----------------|-0-----------|----------------|
|
|--------------|----------------|-------------|----------------|
|-----10-9-----|----------------|-----10-9----|----------------|
|--9--------11-|-9--7--7--9-7---|--9-------11-|--9--7--7--9-7--|
|--------------|----------------|-------------|----------------|
|--------------|----------------|-------------|----------------|
|--------------|----------------|-------------|----------------|
|
|--------------|----------------|-------------|----------------|
|---4--4-6-7---|--7-------------|---4-4-6-7---|--7-------------|
|-7----------5-|------4---5-----|-7---------5-|------4----5----|
|--------------|----------------|-------------|----------------|
 you know i'd like  to keep  my cheeks   dry today


44                   45               46                   47              
|--------------------|--------------0-|--------------------|-------------0-|
|------9-9--9-9----7-|-7----7--7--7-0-|------9-9--9-9----7-|-7---7--7--7-0-|
|---x--9----9-9--x-7-|-7--x-7--7--7-0-|---x--9----9-9--x-7-|-7-x-7--7--7-0-|
|---x--9----9-9--x-7-|-7--x-7--7--7---|---x--9----9-9--x-7-|-7-x-7--7--7---|
|---x--7---------x-5-|-5--x-5-----5---|---x--7---------x-5-|-5-x-5-----5---|
|-0------------------|----------------|-0------------------|---------------|
|
|--------------------|----------------|--------------------|-9h10-9--------|
|------10-9----------|----------------|------10-9---10-10--|--------10--9~-|
|--9-----------11----|--9--7--7--9-7--|--9-----------------|---------------|
|--------------------|----------------|--------------------|---------------|
|--------------------|----------------|--------------------|---------------|
|--------------------|----------------|--------------------|---------------|
|
|--------------------|----------------|--------------------|---------------|
|-----4--4-6--7------|---7------------|------4--4-6--7-----|--7------------|
|--7------------5----|--------4----5--|--7-------------5---|-------4----5--|
|--------------------|----------------|--------------------|---------------|
 so  stay with me and i'll have it made  (i'll have it made...)


48             49               50             51                 
|----0--0----0-|-0----0--0--0---|----2--2--x-2-|--2--x-2---2----0-|
|----0--0--0-0-|-0----0--0--0---|----3--3--x-3-|--3--x-3---3----0-|
|----1--1--1-1-|-1--1-1--1--0---|-2--2--2--x-2-|--2--x-2---2--0-0-|
|----2-----2-2-|----2-2--2--2p0-|-0--0---------|-----0-----0--0-0-|
|----2---------|----2-------2---|----0---------|--------------0---|
|-0--0---------|----0-------0---|--------------|------------------|
|CHORUS 2
|--------------|----------------|--------------|------------------|
|--------------|----9h10----9---|--------------|-----9h10---------|
|------9-------|----------------|------7-------|------------7-----|
|--------------|----------------|--------------|------------------|
|--------------|----------------|--------------|------------------|
|--------------|----------------|--------------|------------------|
|         
|--------------|----------------|--------------|------------------|
|--------------|----------------|-----------7--|------------------|
|---7----------|----------------|-5-------5-5--|----------------5-|
|-----------0--|----------------|--------------|------------------|
 and i don't understand why I sleep all day            and i started


52             53                54              55
|----0--0--0-0-|-0----3---3------|-----0-------0-|----0-0-----0---|
|----2--2--2-2-|-2--0-3---3----0-|-----0--0----3-|-0--3-0--0--0---|
|-2--2--2--2-2-|-2--0-0---0--0-0-|-----1--1----1-|-1--1-1--1--1-1-|
|-2--2--2--2-2-|----0-0---0--0---|-----2-----2---|----2-2-----2-2-|
|-0--------0-0-|-----------------|-----2-----2---|------------2-2-|
|------------0-|------3---3------|-0---0---------|------------0---|
|
|--------------|-----------------|---------------|----------------|
|--------------|-----------------|---------------|----------------|
|--------------|-----------------|---------------|-------x--x-x---|
|------7-------|----5------5-----|--7/9----------|-------x--x-x---|
|--------------|-----------------|---------------|-------x--x-x---|
|--------------|-----------------|---------------|----------------|
|
|--------------|-----------------|---------------|--9-------------|
|------7-------|-----------------|---------------|-------9---9----|
|------7-------|-----------------|---7-------7---|----------------|
|--------------|----3------3-----|---------------|----------------|
 to complain that there's no rain		           and all 


56             57               58             59                
|----0--0----0-|-0----0--0--0---|----2--2--x-2-|-2--x-2---2----0-|
|----0--0--0-0-|-0----0--0--0---|----3--3--x-3-|-3--x-3---3----0-|
|----1--1--1-1-|-1--1-1--1--0---|-2--2--2--x-2-|-2--x-2---2--0-0-|
|----2-----2-2-|----2-2--2--2p0-|-0--0---------|----0-----0--0-0-|
|----2---------|----2-------2---|----0---------|-------------0---|
|-0--0---------|----0-------0---|--------------|-----------------|
|
|--------------|----------------|--------------|-----------------|
|--------------|----------------|------10------|-----------------|
|-------9------|----11b-----9---|--------------|---11b-----9-----|
|--------------|----------------|--------------|-----------------|
|--------------|----------------|--------------|-----------------|
|--------------|----------------|--------------|-----------------|
|
|----------9---|----------9-----|--------------|-----------------|
|------9-------|----9-----------|-----------7--|----------7------|
|--7-----------|----------------|----5---------|---5-------------|
|--------------|----------------|--------------|-----------------|
  i  can  do    is read a book to stay awake             it rips


60             61                62          63            64
|----0--0--0-0-|-0----3---3------|----0----0-|---0--0------|-----|
|----2--2--2-2-|-2--0-3---3----0-|----0----0-|---0--0----0-|-----|
|-2--2--2--2-2-|-2--0-0---0--0-0-|----1----1-|---1--1----0-|-----|
|-2--2--2--2-2-|----0-0---0--0---|----2----2-|---2-----2---|-----|
|-0--------0-0-|-----------------|----2--2---|-2-2-----2---|-----|
|------------0-|------3---3------|-0--0--0---|-0-------0---|-----|
|
|--------------|-----------------|-----------|-------------|-----|
|------12------|-----------------|-----------|--10---10h12-|-----|
|--------------|-----------------|-----------|-------------|--9--|
|--------------|---5----5----5---|-----------|-------------|-----|
|--------------|-----------------|-----7-----|-------------|-----|
|--------------|-----------------|-----------|-------------|-----|
|
|--------------|-----------------|-----------|-------------|-----|
|--------------|-----------------|-----------|-------------|-----|
|---------7----|-----------------|----7------|-------------|--7--|
|---5----------|----3----3-------|-----------|-------------|-----|
  my life  away but it's a great escape                escape


65         66  67         68  69         70              71
|----------|---|----------|-0-|-------0--|---------------|----------------|
|----------|---|----------|-0-|-------0--|----9--9----7--|-7--x-7--7--7---|
|----------|---|----------|-1-|-------0--|----9--9--x-7--|-7--x-7--7--7---|
|----------|---|----------|-2-|----------|----9--9--x-7--|-7--x-7--7--7/9-|
|----------|---|----------|-2-|----------|----7-------5--|------5-----5/7-|
|----------|---|----------|-0-|----------|-0-------------|----------------|
|                                         SOLO
|----------|---|----------|---|----------|---------------|----------------|
|-10-10h12-|---|-10-10h12-|---|-10-10/12-|----10-9----12-|-9---10--9------|
|----------|-9-|----------|-9-|----------|-9--------9----|----9-------9-9-|
|----------|---|----------|---|----------|---------------|----------------|
|----------|---|----------|---|----------|---------------|----------------|
|----------|---|----------|---|----------|---------------|----------------|
|	              
|----------|---|----------|---|----------|---------------|----------------|
|----------|---|----------|---|----------|-----4-6--7----|--7-------------|
|----------|-7-|----------|-7-|----------|--7---------5--|--------4----5--|
|----------|---|----------|---|----------|---------------|----------------|
       escape          escape        

[ Tab from: http://www.guitartabs.cc/tabs/b/blind_melon/no_rain_tab_ver_8.html ]
72                  73              74                 
|-------------------|---------------|--------------------------------|
|-----9----9--x-7---|-7---7--7--7---|------------9-9----9-9-----7----|
|-----9----9--x-7---|-7-x-7--7--7---|--------x---9------9-9---x-7----|
|-----9----9--x-7---|-7-x-7--7--7/9-|--------x---9------9-9---x-7----|
|---------------5---|-5-x-5--5--5/7-|--------x---7------------x-5----|
|--0----------------|---------------|------0-------------------------|
|
|-12-9---10--9---10-|-10---10--9----|-10-9-9--12-9-9--10-9-9--12-9-9-|
|-------9-------9---|-----9----9--9-|-10-9-9--12-9-9--10-9-9--12-9-9-|
|-------------------|---------------|---------9----------------------|
|-------------------|---------------|--------------------------------|
|-------------------|---------------|--------------------------------|
|-------------------|---------------|--------------------------------|
|
|-------------------|---------------|--------------------------------|
|-----4--4-6--7-----|--7------------|--------4----4-6-----7----------|
|--7------------5---|-------4----5--|---7-------------------5--------|
|-------------------|---------------|--------------------------------|



75                               76
|-------------------------0------|--------------------------------|
|-------7-----7----7----7-0------|------------9-9----9-9-----7----|
|-------7---x-7----7----7-0------|--------x---9------9-9---x-7----|
|-------7---x-7----7----7--------|--------x---9------9-9---x-7----|
|-------5---x-5---------5--------|--------x---7------------x-5----|
|--------------------------------|------0-------------------------|
|
|-10-9-9--12-9-9--10-9-9--12-9-9-|-10-9-9--10-9-9--12-9-9--10-9-9-|
|-10-9-9--12-9-9--10-9-9--12-9-9-|-9--9-9--9--9-9--9--9-9--9--9-9-|
|-9-------9-------9--------------|--------------------------------|
|--------------------------------|--------------------------------|
|--------------------------------|--------------------------------|
|--------------------------------|--------------------------------|
|
|--------------------------------|--------------------------------|
|-----7--------------------------|---------4----4--6-----7--------|
|------------------4-------5-----|----7----------------------5----|
|--------------------------------|--------------------------------|
   


77                 78                          79
|----------------0-|---------------------------|----------------------------|
|-7-----7--7---7-0-|-------9-----9------7------|--7----x-7------7-----7-----|
|-7---x-7--7---7-0-|-------9-----9----x-7------|--7----x-7------7-----7-----|
|-7---x-7--7---7---|-------9-----9----x-7------|--7----x-7------7-----7/9---|
|-5---x-5------5---|-------7----------x-5------|---------5------------5/7---|
|------------------|--0------------------------|----------------------------|
|
|-14-9-9-12-9-9-9S-|---------------------------|----------------------------|
|-9--9-9-9--9-9-9S-|-9p7-7-7/5-5--5/3-3--3/2-2-|-2/3-3--3/5-5--5/7-7--7/9-9-|
|-------------9-9S-|---------------------------|----------------------------|
|------------------|---------------------------|----------------------------|
|------------------|---------------------------|----------------------------|
|------------------|---------------------------|----------------------------|
|
|------------------|---------------------------|----------------------------|
|--7---------------|-------4-----4--6----7-----|-----7----------------------|
|-------4----5-----|--7---------------------5--|--------------4------5------|
|------------------|---------------------------|----------------------------|



80                    81                 82                  83
|--------------------|------------------|-------------------|-------------0-|
|-----9---9----7-----|-7--x-7--7--7-----|-----9-9--9-9----7-|-7----7-7--7-0-|
|-----9---9--x-7-----|-7--x-7--7--7-----|---x-9----9-9--x-7-|-7--x-7-7--7-0-|
|-----9---9--x-7-----|-7--x-7--7--7/9---|---x-9----9-9--x-7-|-7--x-7-7--7---|
|------------x-5-----|-5----5--5--5/7---|---x-7---------x-5-|-5--x-5----5---|
|--0-----------------|------------------|-0-----------------|---------------|
|
|-------9----9----10-|-9----12---9--9---|-------------------|-------------7-|
|-9h10---10----10----|----10----10-10-x-|-9b--7----9-x----7-|-7---7--9b---x-|
|--------------------|------------------|-9b--7----9------7-|-7---7--9b---7-|
|--------------------|------------------|-------9-------9---|-9-------------|
|--------------------|------------------|-------------------|---------------|
|--------------------|------------------|-------------------|---------------|
|
|---------------------|-----------------|-------------------|---------------|
|------4---4-6---7----|---7-------------|------4--4-6---7---|--7------------|
|--7----------------5-|-------4---5-----|--7--------------5-|------4----5---|
|---------------------|-----------------|-------------------|---------------|



84                         85                       86    87        88
|--------------------------|--------------------0---|--0--|---------|--2--|
|------9-9----9-9------7---|-7------7----7----7-0---|--0--|---------|--3--|
|---x--9------9-9----x-7---|-7----x-7----7----7-0---|--1--|---------|--2--|
|---x--9------9-9----x-7---|-7----x-7----7----7-----|--2--|---------|--0--|
|---x--7-------------x-5---|-5----x-5---------5-----|--2--|---------|--0--|
|-0------------------------|------------------------|--0--|---------|-----|
|                                                     CHORUS 3
|----7---------------------|------------------------|-----|---------|-----|
|---7---10p7---7-----------|------------------------|-----|-9h10--9-|-----|
|-9b--------9--7-9-9--9p7--|-7--------------7--9p7--|--9--|---------|--7--|
|------------------------9-|--9-7--9p7---7-9------9-|-----|---------|-----|
|--------------------------|----------9-------------|-----|---------|-----|
|--------------------------|------------------------|-----|---------|-----|
|
|--------------------------|------------------------|-----|---------|-----|
|------4---4-6---7---------|-----7------------------|-----|---------|-----|
|--7------------------5----|----------4-----5-------|-7---|---------|--5--|
|--------------------------|------------------------|---0-|---------|-----|
                                                      all i can say....... 


89       90  91                92    93           94  95          96  
|--------|-0-|-3----3---3----3-|--0--|------------|-0-|-----------|--0--|
|--------|-2-|-3--3-3---3--3-3-|--0--|------------|-0-|-----------|--0--|
|--------|-2-|-0--0-0---0--0-0-|--1--|------------|-1-|-----------|--1--|
|--------|-2-|-0--0-0---0--0-0-|--2--|------------|-2-|-----------|--2--|
|--------|-0-|-----------------|--2--|------------|-2-|-----------|--2--|
|--------|---|-3----3---3----3-|--0--|------------|-0-|-----------|--0--|
|
|--------|---|-----------------|-----|------------|---|-----------|-----|
|-9h10-9-|---|-----------------|-----|--10--10/12-|---|-10--10/12-|-----|
|--------|-7-|-----------------|-----|------------|-9-|-----------|--9--|
|--------|---|----5-5---5--5-5-|-----|------------|---|-----------|-----|
|--------|---|-----------------|--7--|-x----------|---|-----------|-----|
|--------|---|-----------------|-----|------------|---|-----------|-----|
|
|--------|---|-----------------|-----|------------|---|-----------|-----|
|--------|---|-----------------|-----|------------|---|-----------|---9-|
|--------|---|-----------------|-7---|------------|-7-|-----------|-7---|
|--------|-5-|---3-------3---3-|---0-|------0-----|---|-----------|-----|
 point of view.......i'm insane        it's not sane    it's not sane


97          98             99               100            101   
|-----0-----|--------------|----------------|--------------|----------------|
|-----0-----|----9--9----7-|-7--x-7--7--7---|----9--9--x-7-|-7----7--7--7---|
|-----0-----|----9--9--x-7-|-7--x-7--7--7---|----9--9--x-7-|-7--x-7--7--7---|
|-----------|----9--9--x-7-|-7--x-7--7--7/9-|----9--9--x-7-|-7--x-7--7--7/9-|
|-----------|----7-------5-|------5-----5/7-|------------5-|-5--x-5--5--5/7-|
|-----------|-0------------|----------------|-0------------|----------------|
|             VERSE 2
|-----------|--------------|----------------|--------------|----------------|
|-10--10/12-|----10-9----7-|----------------|-----10-9--10-|----------------|
|-----------|-9------------|--9--7--7--9-7--|-9------------|--9--7--7--9-7--|
|-----------|--------------|----------------|--------------|----------------|
|-----------|--------------|----------------|--------------|----------------|
|-----------|--------------|----------------|--------------|----------------|
|
|-----------|--------------|----------------|--------------|----------------|
|-----------|--4-6---7-----|--7-------------|---4--4-6--7--|--7-------------|
|-----7-----|-----------5--|-----4--4---5-5-|-7----------5-|-----4--4--5-5--|
|-----------|--------------|----------------|--------------|----------------|
              i just want   some______one to   say to me     oh oh oh oh


102                  103              104                  105 
|--------------------|--------------0-|--------------------|-------------0-|
|------9-9--9-9----7-|-7----7--7--7-0-|------9-9--9-9----7-|-7---7--7--7-0-|
|---x--9----9-9--x-7-|-7--x-7--7--7-0-|---x--9----9-9--x-7-|-7-x-7--7--7-0-|
|---x--9----9-9--x-7-|-7--x-7--7--7---|---x--9----9-9--x-7-|-7-x-7--7--7---|
|---x--7---------x-5-|-5--x-5-----5---|---x--7---------x-5-|-5-x-5-----5---|
|-0------------------|----------------|-0------------------|---------------|
|
|--------------------|----------------|--------------------|-9h10-9--------|
|------10-9----------|----------------|------10-9---10-10--|--------10--9~-|
|--9-----------11----|--9--7--7--9-7--|--9-----------------|---------------|
|--------------------|----------------|--------------------|---------------|
|--------------------|----------------|--------------------|---------------|
|--------------------|----------------|--------------------|---------------|
|
|--------------------|----------------|--------------------|---------------|
|-----4--4-6--7------|---7------------|------4--4-6--7-----|--7------------|
|--7------------5----|--------4----5--|--7-------------5---|-------4----5--|
|--------------------|----------------|--------------------|---------------|
   i'll  always  be  there  when  you  wake            


106            107              108           109            
|--------------|----------------|-------------|----------------|
|----9--9----7-|-7--x-7--7--7---|---9--9-x-7--|-7----7--7--7---|
|----9--9--x-7-|-7--x-7--7--7---|---9--9-x-7--|-7--x-7--7--7---|
|----9--9--x-7-|-7--x-7--7--7/9-|---9--9-x-7--|-7--x-7--7--7/9-|
|----7-------5-|------5-----5/7-|----------5--|-5--x-5--5--5/7-|
|-0------------|----------------|-0-----------|----------------|
|
|--------------|----------------|-------------|----------------|
|-----10-9-----|----------------|-----10-9----|----------------|
|--9--------11-|-9--7--7--9-7---|--9-------11-|--9--7--7--9-7--|
|--------------|----------------|-------------|----------------|
|--------------|----------------|-------------|----------------|
|--------------|----------------|-------------|----------------|
|
|--------------|----------------|-------------|----------------|
|---4--4-6-7---|--7-------------|---4-4-6-7---|--7-------------|
|-7----------5-|------4---5-----|-7---------5-|------4----5----|
|--------------|----------------|-------------|----------------|
 you know i'd like  to keep  my cheeks   dry today


110                  111              112                  113              
|--------------------|--------------0-|--------------------|---------------|
|------9-9--9-9----7-|-7----7--7--7-0-|----9--9-9--7-------|-7-7-7-7-7-7---|
|---x--9----9-9--x-7-|-7--x-7--7--7-0-|----9--9-9--7-------|-7-7-7-7-7-7---|
|---x--9----9-9--x-7-|-7--x-7--7--7---|----9--9-9--7-------|-7-7-7-7-7-7/9-|
|---x--7---------x-5-|-5--x-5-----5---|----7--7----5-------|-5-5---5---5/7-|
|-0------------------|----------------|-0------------------|---------------|
|
|--------------------|----------------|--------------------|---------------|
|------10-9--10------|----------------|--------------------|---------------|
|--9-----------11----|--9--7--7--9-7--|-9/11-9-11b-9-9-11b-|-9-9-11b-9-9-9-|
|--------------------|----------------|--------------------|---------------|
|--------------------|----------------|--------------------|---------------|
|--------------------|----------------|--------------------|---------------|
|
|--------------------|----------------|--------------------|---------------|
|-----4--4-6--7------|---7------------|------4--4-6--7-----|--7------------|
|--7------------5----|------4-4--5-5--|--7-------------5---|-----4-4--5-5--|
|--------------------|----------------|--------------------|---------------|
 so  stay with me and i'll have it made  (i'll have it made...)


114                 115            116                   117
|-------------------|--------------|---------------------|------------------|
|------9---9-9---7--|-7-7--7--7----|------9---9-9----7---|-7----7-7----7----|
|------9---9-9---7--|-7-7--7--7----|------9---9-9----7---|-7----7-7----7----|
|------9---9-9---7--|-7-7--7--7/9--|------9---9-9----7---|-7----7-7----7/9--|
|------7---7-----5--|-5-5-----5/7--|------7---7------5---|-5----5------5/7--|
|--0----------------|--------------|--0------------------|------------------|
|                                    OUTRO
|-------------------|--------------|-12-9--9-10--9----10-|-12-12-10--9----9-|
|-10p9---12--9---10-|-9---12--9----|----9--9-9---9----9--|-9--9--9---9--9-9-|
|-------9-------9---|----9-------9-|----9--9-9------9-9--|-9--9--9---9--9---|
|-------------------|--------------|---------------------|------------------|
|-------------------|--------------|---------------------|------------------|
|-------------------|--------------|---------------------|------------------|
|
|-------------------|--------------|---------------------|------------------|
|----4---6---7------|-7------------|------4--6----7------|-7----------------|
|-7--------------5--|----4-4---5-5-|--7---------------5--|------4-4----5-5--|
|-------------------|--------------|---------------------|------------------|



118                              119
|--------------------------------|--------------------------------|
|-------9---9-9--------7---------|---7----7-7----7-7----7---------|
|-------9---9-9--------7---------|---7----7-7----7-7----7---------|
|-------9---9-9--------7---------|---7----7-7----7-7----7/9-------|
|-------7---7----------5---------|---5----5------5------5/7-------|
|---0----------------------------|--------------------------------|
|
|-9--9-9--9--9-9--9--9-9--9--9-9-|-9--9-9--9--9-9--9--9-9--9--9-9-|
|-10-9-9--12-9-9--10-9-9--12-9-9-|-10-9-9--12-9-9--10-9-9--12-9-9-|
|-9------------------------------|--------------------------------|
|--------------------------------|--------------------------------|
|--------------------------------|--------------------------------|
|--------------------------------|--------------------------------|
|
|--------------------------------|--------------------------------|
|-------4------6-----7-----------|-------7------------------------|
|---7---------------------5------|-------------4---4--------5---5-|
|--------------------------------|--------------------------------|



120                              121
|--------------------------------|------------------------|
|--------9-----9-9-------7-------|--7---7-7---7-7---7-----|
|--------9-----9-9-------7-------|--7---7-7---7-7---7-----|
|--------9-----9-9-------7-------|--7---7-7---7-7---7/9---|
|--------7-----7---------5-------|--5---5-----5-----5/7---|
|----0---------------------------|------------------------|
|
|-12-9-9--12-9-9--10-9-9--12-9-9-|-14-9-9--12-9--9--------|
|-9--9-9--9--9-9--9--9-9--9--9-9-|-9--9-9--9--9--9-x------|
|--------------------------------|-----------------x--9/8-|
|--------------------------------|------------------------|
|--------------------------------|------------------------|
|--------------------------------|------------------------|
|
|--------------------------------|------------------------|
|----------4--6------7-----------|---7--------------------|
|----7-------------------5-------|----------4----4---5--5-|
|--------------------------------|------------------------|



122                        123                       124
|----------------------2---|-------------------------|------------2-|
|---------9---9-9------3---|-------------------------|---9--9-9---3-|
|---------9---9-9------2---|-------------------------|---9--9-9---2-|
|---------9---9-9------0---|-------------------------|---9--9-9---0-|
|---------7-----7------0---|-------------------------|---7----7---0-|
|----0---------------------|-------------------------|-0------------|
|
|----7---------------------|-------------------------|--------------|
|---7---10p7---7-----------|-------------------------|--------------|
|-9b--------9----9-7--9p7--|-7---------------7--9p7--|---9----------|
|------------------------9-|---9-7--9p7---7-9------9-|--------------|
|--------------------------|-----------9-------------|--------------|
|--------------------------|-------------------------|--------------|
|
|--------------------------|-------------------------|--------------|
|---------4--6----7--------|-------------------------|----4-6--7----|
|---7-----------------5----|-------------------------|-7---------5--|
|--------------------------|-------------------------|--------------|



125            126             127            128             129
|--------------|-------------2-|--------------|-------------2-|----------|
|--------------|----9--9-9---3-|--------------|----9--9-9---3-|----------|
|--------------|----9--9-9---2-|--------------|----9--9-9---2-|----------|
|--------------|----9--9-9---0-|--------------|----9--9-9---0-|----------|
|--------------|----7----7---0-|--------------|----7----7---0-|----------|
|--------------|-0-------------|--------------|-0-------------|----------|
|
|--------10-12-|--12~~~~~------|--------10-12-|--12-----------|----------|
|-10/12--------|---------------|-10/12--------|---------------|----------|
|--------------|---------------|--------------|---------------|---11b--9-|
|--------------|---------------|--------------|---------------|----------|
|--------------|---------------|--------------|---------------|----------|
|--------------|---------------|--------------|---------------|----------|
|
|--------------|---------------|--------------|---------------|----------|
|--------------|-----4-6---7---|--------------|----4-6---7----|----------|
|--------------|-7-----------5-|--------------|-7----------5--|----------|
|--------------|---------------|--------------|---------------|----------|



130             131        132       
|-------------2-|----------|----------||
|----9--9-9---3-|----------|----------||
|----9--9-9---2-|----------|----------||
|----9--9-9---0-|----------|----------||
|----7----7---0-|----------|----------||
|-0-------------|----------|----------||
|
|---------10-12-|----------|----------||
|--10/12--------|----------|----------||
|---------------|----------|----------||
|---------------|----------|----------||
|---------------|----------|----------||
|---------------|----------|----------||
|
|---------------|----------|----------||
|-----4-6---7---|----------|----------||
|--7----------5-|----------|----------||
|---------------|----------|----------||


CHORDS:
E-------022100
E7------020100
D-------xx0232
Dsus2---xx0230
A-------x02220
G-------320001


CHORUS 1:
E                        D              Dsus2
All I can say is that my life is pretty plain
  A                         G      E    E7
I like watchin' the puddles gather rain
    E                    D                 Dsus2
And all I can do is just pour some tea for two
    A
and speak my point of view
    G        E              E7
But it's not sane, It's not sane


VERSE:
E           D           E         Dsus2
I just want some one to say to me oh oh oh oh
E           D                 E    Dsus2
I'll always be there when you wake yeah
E                   D              E         Dsus2                    
Ya know I'd like to keep my cheeks dry today
E            D                   E    Dsus2
So stay with me and I'll have it made


CHORUS 2:
    E                        D         Dsus2
And I don't understand why I sleep all day
      A                      G          E    E7
And I start to complain that there's no rain
    E                      D            Dsus2
And all I can do is read a book to stay awake
       A                           G       E       
And it rips my life away, but it's a great escape
E7       E7       E7
escape...escape...escape...


SOLO:


CHORUS 3:
E                        D              Dsus2
All I can say is that my life is pretty plain
         A
ya don't like my point of view
   G         E
ya think I'm insane
        E7              E7
Its not sane...it's not sane.


back to VERSE:


OUTRO:
Comments