Blind Melon - No Rain Chords & Tabs

 

No Rain Chords & Tabs

Blind Melon Chords & Tabs

Version: 4 Type: Bass Tab

No Rain Bass Tab

   
[INTRO]
           E                 E                 E        D        E        D           
G:--------|--------|--------|--------|--------|--------|--------|--------|--------|
D:--------|--------|--------|--------|--------|----467-|-------4|----467-|-------4|
A:--------|7~~~~~~~|--------|7~~~~~~~|--------|7-------|5--5--5-|7-------|5--5--5-|
E:--------|--------|--------|--------|--------|--------|-5---5--|--------|-5---5--|

  E        D        E        D
G:--------|--------|--------|--------|
D:----467-|-------4|----467-|-------4|
A:7-------|5--5--5-|7-------|5--5--5-|
E:--------|-5---5--|--------|-5---5--|

[VERSE]
  E         E              D              D
  All I can say is that my life is pretty plain
    A                 A              E        E
  I like watching the puddles gather rain
      E         E          D                 D
  And all I can do is just pour some tea for two
      A                 A                 E       E             E       E
  And speak my point of view but it's not sane         It's not sane

  E        E        D        D        A        A        E        E
G:--------|--------|--------|--------|--------|--------|--------|--------|
D:--------|--------|-------7|--------|--------|--------|--------|--------|
A:7-------|--------|5-------|--------|--------|--------|7-------|--------|
E:--------|--------|--------|--------|5-------|----3-3-|--------|0-------|

  E        E        D        D        A        A        E        E        E    E
G:-------9|--------|--------|--------|--------|--------|--------|B9------|----|----|
D:------9-|---9----|-------7|------7-|--------|--------|--------|---B-97-|----|----|
A:7-------|--------|5-------|---5----|--------|--------|7-------|--------|7---|----|
E:--------|--------|--------|--------|5-------|----3-3-|--------|--------|----|----|

[CHORUS]
  E             D          E           D
    I just want someone to say to me   oh oh oh oh
  E             D                 E       D
    I'll always be there when you wake
  E                      D              E             D
    You know I'd like to keep my cheeks dry tod-ay-ay-ay-ay-ay-ay
  E            D                   E         D
  So stay with me and I'll have it made
  
  E        D        E        D        E        D        E        D
G:--------|--------|--------|--------|--------|--------|--------|--------|
D:----467-|-------4|----467-|-------4|----467-|-------4|----467-|-------4|
A:7-------|5--5--5-|7-------|5--5--5-|7-------|5--5--5-|7-------|5--5--5-|
E:--------|-5---5--|--------|-5---5--|--------|-5---5--|--------|-5---5--|

  E        D        E        D        E        D        E        D
G:--------|--------|--------|--------|--------|--------|--------|--------|
D:----467-|-------4|----467-|-------4|----467-|-------4|----467-|-------4|
A:7-------|5--5--5-|7-------|5--5--5-|7-------|5--5--5-|7-------|5--5--5-|
E:--------|-5---5--|--------|-5---5--|--------|-5---5--|--------|-5---5--|

[VERSE]
        E          E           D         D
  And I don't understand why I sleep all day
        A           A                     E      E
  And I start to complain that there's no rain
      E         E            D             D
  And all I can do is read a book to stay awake
         A             A                     E      E     E~~~E~     E~~~E~
  And it rips my life away but it's a great escape      Escape     Escape

  E        E        D        D        A        A        E        E
G:--------|--------|--------|--------|--------|--------|--------|--------|
D:-------9|--------|--------|7-------|--------|--------|--------|--------|
A:7-------|--------|5-------|--------|--------|--------|7-------|--------|
E:--------|--------|--------|--------|5-------|----3-3-|--------|0-------|
[ Tab from: http://www.guitartabs.cc/tabs/b/blind_melon/no_rain_btab_ver_4.html ]
  E        E        D        D        A        A        E    E    E    E
G:--------|--------|--------|--------|--------|--------|----|----|----|----|
D:-------9|------9-|--------|--------|--------|--------|----|----|----|----|
A:7-------|---7----|5-------|--------|--------|--------|7---|----|----|----|
E:--------|--------|--------|--------|5-------|----3-3-|----|0---|0---|0---|

[INSTRUMENTAL]
  E        D        E        D        E        D        E        D
G:--------|--------|--------|--------|--------|--------|--------|--------|
D:----467-|--------|----467-|--------|----467-|--------|----467-|--------|
A:7-------|5--5--5-|7-------|5--5--5-|7-------|5--5--5-|7-------|5--5--5-|
E:--------|-5---5--|--------|-5---5--|--------|-5---5--|--------|-5---5--|

  E        D        E        D        E        D        E        D
G:--------|--------|--------|--------|--------|--------|--------|--------|
D:----467-|--------|----467-|--------|----467-|--------|----467-|--------|
A:7-------|5--5--5-|7-------|5--5--5-|7-------|5--5--5-|7-------|5--5--5-|
E:--------|-5---5--|--------|-5---5--|--------|-5---5--|--------|-5---5--|

[VERSE]
  E         E              D              D
  All I can say is that my life is pretty plain
    A                 A              E        E
  You don't like my point of view  You think that I'm insane
      E         E          D                 D
  It's not sane      It's not sane 
      A                 A                 E       E             E       E
  And speak my point of view but it's not sane         It's not sane

  E        E        D        D        A        A        E        E
G:--------|--------|--------|--------|--------|--------|--------|--------|
D:--------|--------|-------7|--------|--------|--------|--------|--------|
A:7-------|--------|5-------|--------|--------|--------|7-------|--------|
E:--------|--------|--------|--------|5-------|----3-3-|--------|0-------|

  E        E        D        D        A        A        E        E        E    E
G:-------9|--------|--------|--------|--------|--------|--------|B9------|----|----|
D:------9-|---9----|-------7|------7-|--------|--------|--------|---B-97-|----|----|
A:7-------|--------|5-------|---5----|--------|--------|7-------|--------|7---|----|
E:--------|--------|--------|--------|5-------|----3-3-|--------|--------|----|----|

[CHORUS]
  E             D          E           D
    I just want someone to say to me   oh oh oh oh
  E             D                 E       D
    I'll always be there when you wake
  E                      D              E             D
    You know I'd like to keep my cheeks dry tod-ay-ay-ay-ay-ay-ay
  E            D                   E         D
  So stay with me and I'll have it made
  
  E        D        E        D        E        D        E        D
G:--------|--------|--------|--------|--------|--------|--------|--------|
D:----467-|-------4|----467-|-------4|----467-|-------4|----467-|-------4|
A:7-------|5--5--5-|7-------|5--5--5-|7-------|5--5--5-|7-------|5--5--5-|
E:--------|-5---5--|--------|-5---5--|--------|-5---5--|--------|-5---5--|

  E        D        E        D        E        D        E        D
G:--------|--------|--------|--------|--------|--------|--------|--------|
D:----467-|-------4|----467-|-------4|----467-|-------4|----467-|-------4|
A:7-------|5--5--5-|7-------|5--5--5-|7-------|5--5--5-|7-------|5--5--5-|
E:--------|-5---5--|--------|-5---5--|--------|-5---5--|--------|-5---5--|

[CODA]
  E     
    I'll have it made   I'll have it made   Really gonna have it made
  E        D        E        D        E        D        E        D
G:--------|--------|--------|--------|--------|--------|--------|--------|
D:----467-|-------4|----467-|-------4|----467-|-------4|----467-|-------4|
A:7-------|5--5--5-|7-------|5--5--5-|7-------|5--5--5-|7-------|5--5--5-|
E:--------|-5---5--|--------|-5---5--|--------|-5---5--|--------|-5---5--|

  E        D        E        D        E        D        E        D
G:--------|--------|--------|--------|--------|--------|--------|--------|
D:----467-|--------|----467-|--------|----467-|--------|----467-|--------|
A:7-------|5-------|7-------|5-------|7-------|5-------|7-------|5-------|
E:--------|--------|--------|--------|--------|--------|--------|--------|

Tabbed by Michael Oxner (moxner@nbnet.nb.ca)