Blind Melon - No Rain Chords & Tabs

 

No Rain Chords & Tabs

Blind Melon Chords & Tabs

Version: 2 Type: Bass Tab 0 ratings
1 star 2 stars 3 stars 4 stars 5 stars
comments

No Rain Bass Tab

Song Title: No Rain
Artist: Blind Melon
----------------------------------------------

Blind Melon - "No Rain" - Bass Tab

Intro:
|-----|----------|----------|
|-----|*-----let-it-carry--*|
|-r-r-|*-7-------|---------*|(x2) 
|-----|----------|----------|
  1 2    1 2 3 4   1 2 3 4

Riff 1:
|----9-------|------------|
|*-----6-7-6-|---7-------*|
|*-7---------|-5---4-0-5-*|
|------------|------------|
   1 2 3 & 4   1 2 3 & 4
[ Tab from: http://www.guitartabs.cc/tabs/b/blind_melon/no_rain_btab_ver_2.html ]
Riff 2:
|----------|---------|---------|-7-------|---------|-----------|
|*---------|---------|---------|---------|---------|-----------|
|*-7-------|---------|-5-------|---------|---------|-----------|
|----------|---------|---------|---------|-5-------|-----3-0-3-|
   1 2 3 4   1 2 3 4   1 2 3 4   1 2 3 4   1 2 3 4   1 2 3 & 4 
             _____
            |all except 2nd time(1st verse) go to fill      
|---------|----------|
|---------|---------*|
|---------|---------*|(lots of little octave variations here
|-0-------|----------|  is just an idea on notes)
  1 2 3 4   1 2 3 4  

Fill:
|-9-7-------|---------|
|-----9-7-5-|---------|
|-----------|-7-------|
|-----------|---------|
  1 2 3 & 4   1 2 3 4 




Submitted by:  Johari Taylor (viking@powerup.com.au)


Comments