Blind Melon - Mouthful Of Cavities Chords & Tabs

 

Mouthful Of Cavities Chords & Tabs

Blind Melon Chords & Tabs

Version: 1 Type: Tab 0 ratings
1 star 2 stars 3 stars 4 stars 5 stars
comments

Mouthful Of Cavities Tab

#----------------------------------PLEASE NOTE---------------------------------#
#This file is the author's own work and represents their interpretation of the #
#song. You may only use this file for private study, scholarship, or research. #
#------------------------------------------------------------------------------#
From: CNelson349@aol.com
Date: Thu, 14 Dec 1995 02:42:36 -0500
Subject: Blind Melon-Mouthful of Cavities.tab

Mouthful of Cavities.tab -  Blind Melon =



------0--0-0------0-0---------------------------0--0-0-----------
------0--0-0------0-0-------3p0---0--0--0--0----0--0-0-----------
------0--0-0------0-0------------4--3--2--0-----0--0-0-----------
---2--2--2-2------2-2------------------------2--2--2-2-----------
---------------3--3-3--3/5---------------------------------------
-----------------------------------------------------------------
[ Tab from: http://www.guitartabs.cc/tabs/b/blind_melon/mouthful_of_cavities_tab.html ]
------0-0--------------------------------------------------------
------0-0---------5h7--7-7---5h7--7-7---7--5---------------------
------0-0---------5h7--7-7---5h7--7-7---7--5---------------------
------2-2---------5h7--7-7---5h7--7-7---7--5----------(repeat)---
---3--3-3--3/5---------------------------------------------------
-----------------------------------------------------------------

That's the basic riff for the whole song, except for one small
chord change that I'm too lazy to fugure out,and at the end of =

the song when they turn on the distortion they play  E C and D
and the little 5h7 thing (at the end of the tab).


This is the first time I've posted anything. I think it's alot =

closer than the  "cavities" version I've found. Please let me
know if it sounds o.k., if you know how to use e-mail, I don't.
Also if you know any Blind Melon songs post em', or send me a copy
Thanks 12/13/95
from:CNelson349@aol.com

"And I can't understand why something good's got to die
before we miss it   "-SHANNON HOON


--PART.BOUNDARY.0.413.mail02.mail.aol.com.818926956--
Comments