Blind Melon - Mother Chords & Tabs

 

Mother Chords & Tabs

Blind Melon Chords & Tabs

Version: 1 Type: Chords 0 ratings
1 star 2 stars 3 stars 4 stars 5 stars
comments

Mother Chords

   
-------------------------------------------------------------------------------
			     MOTHER - Blind Melon
-------------------------------------------------------------------------------
Tabbed by:Lance
Email:

I saw someone ask for this so I though I'd put it up.

Tuning: Standard
Key: Em

Intro/Verse 
[ Tab from: http://www.guitartabs.cc/tabs/b/blind_melon/mother_crd.html ]
0:00 - 2:32
    Em             D/Dsus4/D         Cadd9 (play any variations of this)
e|--0---0---0-0----2-2-3-2-----    --0------------------------|
B|--0---0---0-0----3-3-3-3-----    --3------------------------|
G|--0---0---0-0----2-2-2-2----- X3 --0------------------------|
D|--2---2---2-2----0-0-0-0-----    --2------------------------|
A|--2---2---2-2----------------    --3------------------------|
E|--0---0---0-0----------------    ---------------------------|

2:32
    Em 

2:35
    Em - F#m - G - G
    Em - F#m - G - Em
    Em - F#m - G - G
    Em - F#m - F#m - F#m
    F#m - G - G -G

repeat twice

Corrections are welcome
Comments