Blind Melon - Galaxy Chords & Tabs

 

Galaxy Chords & Tabs

Blind Melon Chords & Tabs

Version: 1 Type: Bass Tab 0 ratings
1 star 2 stars 3 stars 4 stars 5 stars
comments

Galaxy Bass Tab

Blind Melon - Galaxie
Submitted By: Issac H
EMail: sicusa_issac@hotmail.com


Hi everybody. If youre looking for this song then you knoww 
about good music

The song has several parts the 1st one is this
INTR0:
G----------------------------------------
D----------------------------------------
A-------------5555--4-5------------------
E---000---333-----------000---333---1-1-1

G----------------------------------------
D----------------------------------------
A------------5555--4-5-------------------
E---000--333------------000---333---1-1--

  Then the lyrics begins. The 2nd pert is this.And it repeats
4 times.
VERSE:
G----------------------------------------
D----------------------------------------
A------------5555--4-5-------------------
E---000--333------------000--333---11111-

After this come the chorus part, you know slow part...
and it goes like this. Do this part 3 times.

G-----------------------------------------------------
D------------------------------7-7-0h7-6-0------------
A---0h3-3-0h3-2----------------------------7-7-0h7-7-0
E----------------0h3-3-0h3-2-0------------------------
[ Tab from: http://www.guitartabs.cc/tabs/b/blind_melon/galaxy_btab.html ]
And in the fourth time do this, cheack out, it is very simple.This 
is the part where Shanon screams, Im more at home in my galaxie.

G--------------------------------------------------------------
D----------------------------7-7-0h7-6-0-----------------------
A--0h3-3-0h3-2---------------------------777777--555555--333333
E--------------0h3-3-0h3-2-0------------------------------------


After this follows The INTRO, again, the same two parts...

After the intro the vERSE, and after this the CHORUS PART.
The song keeps the same tabs all the time, as you can see its a very
simple secuence. It changes just until the end and it goes like this

END:
G-------------------------------------------------------------
D-----------------------------7-7-0h7-6-0---------------------
A-0h3-3-0h3-3-2---------------------------777777-555555-333333
E---------------0h3-3-0h3-2-0---------------------------------


G-----------------------------------------------------------------
D-----------------------------------------------------------------
A-777777--555555-333333--777777-555555-333333-77777-55555-33333---
E----------------------------------------------------------------0

The very last note, 0 or E just let it ring until die by it self

  And well this is the song. anything this is my mail 
sicusa_issac@hotmail.com
Comments