Blind Melon - Galaxie Chords & Tabs

 

Galaxie Chords & Tabs

Blind Melon Chords & Tabs

Version: 1 Type: Tab 0 ratings
1 star 2 stars 3 stars 4 stars 5 stars
comments

Galaxie Tab

   
#----------------------------------PLEASE NOTE--------------------------------#
#This file is the author's own work and represents their interpretation of the#
#song. You may only use this file for private study, scholarship, or research.#
#-----------------------------------------------------------------------------#
#-- File created with Instab - http://www.pconline.com/~smcarey/instab.html --#
#-----------------------------------------------------------------------------#

Author/Artist: Blind Melon
Title: Galaxie
Album: Soup
Transcribed by: Joe Kercheville
-|-----3-3-3-------------|-------3-3-3---------|------------------------------
-|-----3-3-3-3-3-3-3-3-3-|-------3-3-3---------|------------------------------
-|-----0-0-0-2-2-2-2-2-2-|-------0-0-0---------|------------------------------
-|-2-2-0-0-0-0-0-0-0-0-0-|-2-2-2-0-0-0-3--3--3-|------------------------------
-|-2-2-x-x-x-------------|-2-2-2-x-x-x-3--3--3-|------------------------------
-|-0-0-3-3-3-------------|-0-0-0-3-3-3-1--1--1-|------------------------------
 Intro                                                                        

-|-------------------------|-------------------------|------------------------
-|-------------------------|-------------------------|------------------------
-|-------------7-7-7-7-7-7-|-------------------------|------------------------
-|-2-2-2-5-5-5-7-7-7-7-7-7-|-2-2-2-5-5-5-3-3-3-3-3-3-|------------------------
-|-2-2-2-5-5-5-5-5-5-5-5-5-|-2-2-2-5-5-5-3-3-3-3-3-3-|------------------------
-|-0-0-0-3-3-3-------------|-0-0-0-3-3-3-1-1-1-1-1-1-|------------------------
  Verse G1 --------------------pm throughout-----------                       

-|----------------------------------------------|-----------------------------
-|----------------------------------------------|-----------------------------
-|-----------------7-9p7vv---------------9p7----|-----------------------------
-|-------------7--9---------------7--9-9----9vv-|-----------------------------
-|----------------------------------------------|-----------------------------
-|----------------------------------------------|-----------------------------
  G2                                                                          

-|-------------------------|---------------------|----------------------------
-|-------------0-----------|---------------------|----------------------------
-|-------------0-7-7-7-7-7-|---------------------|----------------------------
-|-2-2-2-5-5-5---7-7-7-7-7-|-2-2-2-5-5-5-3--3--3-|----------------------------
-|-2-2-2-5-5-5---5-5-5-5-5-|-2-2-2-5-5-5-3--3--3-|----------------------------
-|-0-0-0-3-3-3-------------|-0-0-0-3-3-3-1--1--1-|----------------------------
  Pre-Chorus  G1                                                              

-|-10--10-x-x--8--8-x-x--7-7-x-x--5-5--5-5-5-|--------------------------------
-|-8---8--x-x--8--8-x-x--8-8-x-x--6-6--6-6-6-|--------------------------------
-|-------------------------------------------|--------------------------------
-|-------------------------------------------|--------------------------------
-|-------------------------------------------|--------------------------------
-|-------------------------------------------|--------------------------------
  G2                                                                          

-|-0-----0---0------0--|-0-----3------------0--|-----0--------------|---------
-|-1-----1----------1--|-3-----3-----3------0--|-1---1--------------|---------
-|-0----------------0--|-0-----------0---------|-2---------2------0-|---------
-|-2--2---------2------|-0-0------------0------|-2-2-------2--2---2-|---------
-|-3--3---------3------|-2-2------------2------|---0----------0-----|---------
-|---------------------|-3---------------------|--------------------|---------
  Chorus G1                                                                   
[ Tab from: http://www.guitartabs.cc/tabs/b/blind_melon/galaxie_tab.html ]
-|-------------------|--------------------------------------------------------
-|----------------0--|--------------------------------------------------------
-|-1---1--1----1--1--|--------------------------------------------------------
-|-2---2----2--2-----|--------------------------------------------------------
-|-2--------2--2-----|--------------------------------------------------------
-|---0------0--------|--------------------------------------------------------
  G1                                                                          

-|----0--0--0--0--0--0--0--0--0--0--0-|-0--0--0--0--0--0--0--0--0--0--0--0-|--
-|-0--0--0--0--0--0--0--0--0--0--0--0-|-0--0--0--0--0--0--0--0--0--0--0--0-|--
-|-9--9--9--9--9--9--7--7--7--7--7--7-|-5--5--5--5--5--5--5--5--5--5--5--5-|--
-|-9--9--9--9--9--9--7--7--7--7--7--7-|-5--5--5--5--5--5--5--5--5--5--5--5-|--
-|-7--7--7--7--7--7--5--5--5--5--5--5-|-3--3--3--3--3--3--3--3--3--3--3--3-|--
-|------------------------------------|------------------------------------|--
  Post Chorus G1                                                              

-|-12-12-12-12-12-12-10-10-10-10-10-10-|-8-8-8-8-8-8-8-8-8-8-8-8-|------------
-|-------------------------------------|-------------------------|------------
-|-------------------------------------|-------------------------|------------
-|-------------------------------------|-------------------------|------------
-|-------------------------------------|-------------------------|------------
-|-------------------------------------|-------------------------|------------
  G2                                                                          

-|-------------------------|-------------------------|------------------------
-|-------------------------|-------------------------|------------------------
-|-9-9-9-9-9-9-7-7-7-7-7-7-|-5-5-5-5-5-5-5-5-5-5-5-5-|------------------------
-|-------------------------|-------------------------|------------------------
-|-------------------------|-------------------------|------------------------
-|-------------------------|-------------------------|------------------------
  G2                                                                          

-|-10--10-10-10-x-x--7-7-7-7-|-----------------------0--|---------------------
-|-8---8--8--8--x-x--8-8-8-8-|-5-5-5-5-5-5-5-5-5-5-5-0--|---------------------
-|-0---0--0--0---------------|--------------------------|---------------------
-|---------------------------|--------------------------|---------------------
-|---------------------------|--------------------------|---------------------
-|---------------------------|--------------------------|---------------------
  G2                                                                          

-|-------------------------|--------------------------|-----------------------
-|----------------------7--|-7-7-7-7-7-7-7-7-7-7-7-7--|-----------------------
-|-9-9-9--0--9-9-9--0-0-7--|-7-7-7-7-7-7-7-7-7-7-7-7--|-----------------------
-|-9-9-9--0--9-9-9--0-0----|--------------------------|-----------------------
-|-------------------------|--------------------------|-----------------------
-|-------------------------|--------------------------|-----------------------
 G2                                                                           

-|-0--0--0--0--0--0-----------------3-|----------------------0--------0----|--
-|-0--0--0--0--0--0--0-----------3--3-|-1--1--1--1--1--1--1--1--1--1--1--1-|--
-|-9--9--9--9--9--9--0-----0--0--0--0-|-0--0--0--0--0--0--0--0--0--0--0--0-|--
-|-9--9--9--9--9--9--0--0--0--0--0--0-|-2--2--2--2--2--2--2--2--2--2--2--2-|--
-|-7--7--7--7--7--7--2--2--2--2--2--2-|-3--3--3--3--3--3--3--3--3--3--3--3-|--
-|-------------------3--3--3--3--3--3-|------------------------------------|--
  Outro                                                                       

-|-------------3-3-3-3-3-3-|--------------------0-------------|---------------
-|-------------0-0-0-0-0-0-|-3--------------------0-----------|---------------
-|-1-1-1-1-1-1-0-0-0-0-0-0-|-2----------------------0---------|---------------
-|-2-2-2-2-2-2-0-0-0-0-0-0-|-0------------------------2-------|---------------
-|-2-2-2-2-2-2-x-x-x-x-x-x-|----------------------------2-----|---------------
-|-0-0-0-0-0-0-3-3-3-3-3-3-|------------------------------0---|---------------
   Both Guitars
Comments