Blind Melon - All That I Need Chords & Tabs

 

All That I Need Chords & Tabs

Blind Melon Chords & Tabs

Version: 1 Type: Tab 0 ratings
1 star 2 stars 3 stars 4 stars 5 stars
comments

All That I Need Tab

   
#-----------------------------PLEASE NOTE-------------------------------------#
#This      file is the author's own work and represents their interpretation  #
#of the song. You may only use this file for private study, scholarship, or   #
#research. Remember to view this file in Courier, or other monospaced font.   #
#See http://www.olga.net/faq/ for more information.                           #
#-----------------------------------------------------------------------------#

Subject: b/blind_melon/all_that_i_need.tab
Date: Sat, 17 May 1997 18:50:24 -0700
From: David Bryan Johnson 


                        "ALL THAT I NEED"  - Blind Melon
                                From the album 'Nico'

        this is a great song, and it's really pretty simple.  most of
        the chords used are just root position chords shifted up a few frets.
        I've written them all out, but you'll have to listen to the album to
        get a feel for the rhythm - it should be pretty easy to pick up.

        any questions, or just looking for blind melon material, email
        me at bryanj@flash.net



        #1)  ---5---2---0---0---5---2---0---0---5---2---0---5---3--
             ---7---3---3---2---7---3---3---2---7---3---3---5---3--
             ---6---2---0---0---6---2---0---0---6---2---0---6---4--
             --(0)-(0)--2---2-----------2---2-----------2----------
             -----------2---0-----------2---0-----------2----------

[ Tab from: http://www.guitartabs.cc/tabs/b/blind_melon/all_that_i_need_tab.html ]
        #2)  ---2---7---5---3---5---3---2--
             ---3---8---7---5---7---5---3--
             ---2---7---6---4---6---4---2--
             ------------------------------
             ------------------------------
             ------------------------------


        #3)  ---0---0---0---0---
             ---0---1---3---1---
             ---0---0---0---0---
             ---2---2---4---2---
             ---2---3---5---3---
             ---0---0---0---0---


        #4)  ------------------------------------------
             ------------------------------------------
             ------------------------------------------
             ---2---2---2---2---2---2---2---2---2---4--
             ---0---2---3---2---0---0---0---2---3---5--
             ---0---0---0---0---3---2---0---0---0---0--


        #5)  D* C  Em

                D* - just play c and move your fingers up two frets

****************************************************************************************************

****************************************************************************************************

                        

From m.stromshed@lulea.mail.telia.com Mon Sep  1 10:24:23 1997
Date: Sat, 09 Aug 1997 15:59:05 +0200
From: Strömshed 
To: guitar@olga.net
Subject: Blind Melon: All That I need: tab

Artist: Blind Melon
Song Title: All That I Need
Album: Nico

I think this is Blind Melons best song ever, so I decided to tab it:

Intro/the little riff between the verses:
e:-2--2-2--7-7--5--3-3--5-5-5--3-3-3-3-3--2---2---]
b:-3--3-3--9-9--7--3-3--5-5-5--3-3-3-3-3--3---3---]
g:-2--2-2--7-7--6--4-4--6-6-6--4-4-4-4-4--2---2---]
d:-----------------5-5--7-7-7--5-5-5-5-5----------]
a:------------------------------------------------]
e:------------------------------------------------]

-JoHn (Nirvana & Smashing Pumpkins RULES!!!)
Comments