Blind Guardian - When Sorrow Sang Chords & Tabs

 

When Sorrow Sang Chords & Tabs

Blind Guardian Chords & Tabs

Version: 1 Type: Bass Tab 0 ratings
1 star 2 stars 3 stars 4 stars 5 stars
comments

When Sorrow Sang Bass Tab

Tune Down

F#||----------------------------|-----------------------------|
C#||---------------5------------|-----------------------------|
G#||--7-------------------------|--6------------7----9--7--6--|
D#||-------0-0-0-0------0-0-0-0-|-------0-0-0-0---------------|


                                                           
----------------------------|-----------------------------|
---------------5------------|-----------------------------|
--7-------------------------|--6------------7----9--7--6--|
-------0-0-0-0------0-0-0-0-|-------0-0-0-0---------------|


                                                           
----------------------------|-----------------------------|
---------------5------------|-----------------------------|
--7-------------------------|--6------------7----9--7--6--|
-------0-0-0-0------0-0-0-0-|-------0-0-0-0---------------|


                                                           
----------------------------|-----------------------------|
---------------5------------|-----------------------------|
--7-------------------------|--6------------7----9--7--6--|
-------0-0-0-0------0-0-0-0-|-------0-0-0-0---------------|


                                                                     
----------------------|----------------------|----------------------|
----------------------|----------------------|----------------------|
--7-------------------|-------7----6----9----|--7-------------------|
-------7----8----5----|--7-------------------|-------7----8----5----|


                                                                
----------------------|--------------------|-------------------|
----------------------|--------------------|-------------------|
-------7----6----9----|--7-----------------|--7----------------|
--7-------------------|-----------------0--|-------------------|


                                                              
------------------------------|------------------------------|
------------------------------|------------------------------|
--7--7--7-7-7-7-7--7--7-7-7-7-|--3--3--3-3-3-3-3--3--3-3-3-3-|
------------------------------|------------------------------|


                                                              
------------------------------|------------------------------|
------------------------------|------------------------------|
--5--5--5-5-5-5-5--5--5-5-5-5-|------------------------------|
------------------------------|--5--5--5-5-5-5-5--5--5-5-5-5-|


                                                              
------------------------------|------------------------------|
------------------------------|------------------------------|
--7--7--7-7-7-7-7--7--7-7-7-7-|--3--3--3-3-3-3-3--3--3-3-3-3-|
------------------------------|------------------------------|


                                                              
------------------------------|------------------------------|
------------------------------|------------------------------|
--5--5--5-5-5-5-5--5--5-5-5-5-|------------------------------|
------------------------------|--5--5--5-5-5-5-5--5--5-5-5-5-|


                                                                      
----------------------------------|----------------------------------|
----------------------------------|----------------------------------|
----------------------------------|----------------------------------|
--2-2-2-2-2-2-2-2-2-2-2-2-2-2-2-2-|--0-0-0-0-0-0-0-0-0-0-0-0-0-0-0-0-|


                                                               
----------------------------------|---------------------------|
----------------------------------|---------------------------|
--2-2-2-2-2-2-2-2-2-2-2-2-2-2-2-2-|--4--2-2-2-----------------|
----------------------------------|------------5--5--4--2--0--|


                                                                      
----------------------------------|----------------------------------|
----------------------------------|----------------------------------|
----------------------------------|----------------------------------|
--2-2-2-2-2-2-2-2-2-2-2-2-2-2-2-2-|--0-0-0-0-0-0-0-0-0-0-0-0-0-0-0-0-|


                                                               
----------------------------------|---------------------------|
----------------------------------|---------------------------|
--2-2-2-2-2-2-2-2-2-2-2-2-2-2-2-2-|--4--2-2-2-----------------|
----------------------------------|------------5--5--4--2--0--|


                                                               
---------------------|------------------|---------------------|
---------------------|------------------|---------------------|
---------------------|------------------|---------------------|
--2------2------2----|------------------|--2------2------0----|


                                                            
------------------|---------------------|------------------|
------------------|---------------------|------------------|
------------------|---------------------|------------------|
------------------|--2------2------2----|------------------|


                                                                        
---------------------|------------------|------------------------------|
---------------------|------------------|------------------------------|
---------------------|------------------|------------------------------|
--2------2------0----|------------------|--4--4--4-4-4-4-4--4--4-4-4-4-|


                                                              
------------------------------|------------------------------|
------------------------------|------------------------------|
--2--2--2-2-2-2-2--2--2-2-2-2-|--4--4--4-4-4-4-4--4--4-4-4-4-|
------------------------------|------------------------------|


                                                          
--------------------------|------------------------------|
--------------------------|------------------------------|
--6--4--4-----------------|------------------------------|
-----------7--7--6--4--2--|--4--4--4-4-4-4-4--4--4-4-4-4-|


                                                              
------------------------------|------------------------------|
------------------------------|------------------------------|
--2--2--2-2-2-2-2--2--2-2-2-2-|--4--4--4-4-4-4-4--4--4-4-4-4-|
------------------------------|------------------------------|


                                                           
-------------------|--------------------------------------|
-------------------|--------------------------------------|
--2----------------|--7--7--7--7--7--7--7--7--7--7--7--7--|
-------------------|--------------------------------------|


                                                                              
--------------------------------------|--------------------------------------|
--------------------------------------|--------------------------------------|
--------------------------------------|--5--5--5--5--5--5--5--5--5--5--5--5--|
--8--8--8--8--8--8--8--8--8--8--8--8--|--------------------------------------|


                                                                              
--------------------------------------|--------------------------------------|
--------------------------------------|--------------------------------------|
--------------------------------------|--------------------------------------|
--5--5--5--5--5--5--5--5--5--5--5--5--|--0--0--0--0--0--0--0--0--0--0--0--0--|


                                                                              
--------------------------------------|--------------------------------------|
--------------------------------------|--------------------------------------|
--------------------------------------|--5--5--5--5--5--5--5--5--5--5--5--5--|
--8--8--8--8--8--8--8--8--8--8--8--8--|--------------------------------------|


                                                                              
--------------------------------------|--------------------------------------|
--------------------------------------|--------------------------------------|
--------------------------------------|--7--7--7--7--7--7--7--7--7--7--7--7--|
--5--5--5--5--5--5--5--5--5--5--5--5--|--------------------------------------|


                                                                              
--------------------------------------|--------------------------------------|
--------------------------------------|--------------------------------------|
--------------------------------------|--5--5--5--5--5--5--5--5--5--5--5--5--|
--8--8--8--8--8--8--8--8--8--8--8--8--|--------------------------------------|


                                                                              
--------------------------------------|--------------------------------------|
--------------------------------------|--------------------------------------|
--------------------------------------|--------------------------------------|
--5--5--5--5--5--5--5--5--5--5--5--5--|--0--0--0--0--0--0--0--0--0--0--0--0--|


                                                                              
--------------------------------------|--------------------------------------|
--------------------------------------|--------------------------------------|
--------------------------------------|--5--5--5--5--5--5--5--5--5--5--5--5--|
--8--8--8--8--8--8--8--8--8--8--8--8--|--------------------------------------|


                                                                    
-------------------------|-------------------|---------------------|
-------------------------|-------------------|---------------------|
-------------------------|-------------------|---------------------|
--5--5--5--5--5--5--5----|--2----------------|------------0-0-2----|


                                                                                
-------------------|------------------|--------------------|-------------------|
-------------------|------------------|--------------------|-------------------|
-------------------|------------------|--------------------|-------------------|
--5----------------|------------------|--2--2--------------|--------------2----|


                                                                         
--------------------|--------------------|------------------------------|
--------------------|--------------------|------------------------------|
--------------------|--------------------|--4--4--4-4-4-4-4--4--4-4-4-4-|
--5--------5--------|--5--------5--------|------------------------------|


                                                              
------------------------------|------------------------------|
------------------------------|------------------------------|
--4--4--4-4-4-4-4--4--4-4-4-4-|--7--7--7-7-7-7-7--7--7-7-7-7-|
------------------------------|------------------------------|


                                                     
-------------------|--------------------------------|
-------------------|-----------------7----6----4----|
--7----------------|--------------------------------|
--0----------------|--2----2----2-------------------|


                                                                            
---------------------------------|--------------------|--------------------|
--6----4-6-4------4--------------|--------------------|--------------------|
-------------7---------7----4----|--0--------0--------|--2--------2--------|
---------------------------------|--------------------|--------------------|


                                                            
-----------------------------|-----------------------------|
-----------------------------|-----------------------------|
-----------------------------|-----------------------------|
--0--0-0-0--0--0-0-0--0-0-0--|--0--0-0-0--0--0-0-0--0-0-0--|


                                                            
-----------------------------|-----------------------------|
-----------------------------|-----------------------------|
-----------------------------|-----------------------------|
--3--3-3-3--3--3-3-3--3-3-3--|--3--3-3-3--3--3-3-3--3-3-3--|


                                                            
-----------------------------|-----------------------------|
-----------------------------|-----------------------------|
--2--2-2-2--2--2-2-2--2-2-2--|--2--2-2-2--2--2-2-2--2-2-2--|
-----------------------------|-----------------------------|


                                                            
-----------------------------|-----------------------------|
-----------------------------|-----------------------------|
--2--2-2-2--2--2-2-2--2-2-2--|--2--2-2-2--2--2-2-2--2-2-2--|
-----------------------------|-----------------------------|


                                                            
-----------------------------|-----------------------------|
-----------------------------|-----------------------------|
-----------------------------|-----------------------------|
--0--0-0-0--0--0-0-0--0-0-0--|--0--0-0-0--0--0-0-0--0-0-0--|


                                                            
-----------------------------|-----------------------------|
-----------------------------|-----------------------------|
-----------------------------|-----------------------------|
--3--3-3-3--3--3-3-3--3-3-3--|--3--3-3-3--3--3-3-3--3-3-3--|


                                                            
-----------------------------|-----------------------------|
-----------------------------|-----------------------------|
--2--2-2-2--2--2-2-2--2-2-2--|--2--2-2-2--2--2-2-2--2-2-2--|
-----------------------------|-----------------------------|


                                                            
-----------------------------|-----------------------------|
-----------------------------|-----------------------------|
--2--2-2-2--2--2-2-2--2-2-2--|--2--2-2-2--2--2-2-2--2-2-2--|
-----------------------------|-----------------------------|


                                                           
------------------------------|---------------------------|
------------------------------|---------------------------|
--7--7-7-7--10--8-8-8--8------|----7-7-7--10--8-8-8--8----|
--------------------------10--|---------------------------|


                                                           
------------------------------|---------------------------|
------------------------------|---------------------------|
--7--7-7-7--10--8-8-8--8------|----7-7-7--10--8-8-8--8----|
--------------------------10--|---------------------------|


                                                          
----------------------------|----------------------------|
----------------------------|----------------------------|
--7-7-7-7-7--7----7--7------|--7-7-7-7-7--7----7--7------|
------------------------10--|------------------------10--|


                                                                          
------------------------------------|------------------------------------|
------------------------------------|------------------------------------|
--10-10-10-10-10--10----10--10------|--10-10-10-10-10--10----10--10------|
--------------------------------10--|--------------------------------10--|


                                                          
----------------------------|----------------------------|
----------------------------|----------------------------|
--7-7-7-7-7--7----7--7------|--7-7-7-7-7--7----7--7------|
------------------------10--|------------------------10--|

[ Tab from: http://www.guitartabs.cc/tabs/b/blind_guardian/when_sorrow_sang_btab.html ]
                                                                          
------------------------------------|------------------------------------|
------------------------------------|------------------------------------|
--10-10-10-10-10--10----10--10------|--10-10-10-10-10--10----10--10------|
--------------------------------10--|--------------------------------10--|


                                                          
----------------------------|----------------------------|
----------------------------|----------------------------|
--7-7-7-7-7--7----7--7------|--7-7-7-7-7--7----7--7------|
------------------------10--|------------------------10--|


                                                                          
------------------------------------|------------------------------------|
------------------------------------|------------------------------------|
--10-10-10-10-10--10----10--10------|--10-10-10-10-10--10----10--10------|
--------------------------------10--|--------------------------------10--|


                                                          
----------------------------|----------------------------|
----------------------------|----------------------------|
--7-7-7-7-7--7----7--7------|--7-7-7-7-7--7----7--7------|
------------------------10--|------------------------10--|


                                                                          
------------------------------------|------------------------------------|
------------------------------------|------------------------------------|
--10-10-10-10-10--10----10--10------|--10-10-10-10-10--10----10--10------|
--------------------------------10--|--------------------------------10--|


                                                                              
--------------------------------------|--------------------------------------|
--------------------------------------|--------------------------------------|
--7--7--7--7--7--7--7--7--7--7--7--7--|--------------------------------------|
--------------------------------------|--8--8--8--8--8--8--8--8--8--8--8--8--|


                                                                              
--------------------------------------|--------------------------------------|
--------------------------------------|--------------------------------------|
--5--5--5--5--5--5--5--5--5--5--5--5--|--------------------------------------|
--------------------------------------|--5--5--5--5--5--5--5--5--5--5--5--5--|


                                                                              
--------------------------------------|--------------------------------------|
--------------------------------------|--------------------------------------|
--------------------------------------|--------------------------------------|
--0--0--0--0--0--0--0--0--0--0--0--0--|--8--8--8--8--8--8--8--8--8--8--8--8--|


                                                                              
--------------------------------------|--------------------------------------|
--------------------------------------|--------------------------------------|
--5--5--5--5--5--5--5--5--5--5--5--5--|--------------------------------------|
--------------------------------------|--5--5--5--5--5--5--5--5--5--5--5--5--|


                                                                              
--------------------------------------|--------------------------------------|
--------------------------------------|--------------------------------------|
--7--7--7--7--7--7--7--7--7--7--7--7--|--------------------------------------|
--------------------------------------|--8--8--8--8--8--8--8--8--8--8--8--8--|


                                                                              
--------------------------------------|--------------------------------------|
--------------------------------------|--------------------------------------|
--5--5--5--5--5--5--5--5--5--5--5--5--|--------------------------------------|
--------------------------------------|--5--5--5--5--5--5--5--5--5--5--5--5--|


                                                                              
--------------------------------------|--------------------------------------|
--------------------------------------|--------------------------------------|
--------------------------------------|--------------------------------------|
--0--0--0--0--0--0--0--0--0--0--0--0--|--8--8--8--8--8--8--8--8--8--8--8--8--|


                                                                  
--------------------------------------|--------------------------|
--------------------------------------|--------------------------|
--5--5--5--5--5--5--5--5--5--5--5--5--|--------------------------|
--------------------------------------|--5--5--5--5--5--5--5--5--|


                                                        
---------------------------|---------------------------|
---------------------------|---------------------------|
--7--7-7-7-7-7----7-7-7----|--5--5-5-5-5-5----5-5-5----|
---------------------------|---------------------------|


                                                        
---------------------------|---------------------------|
---------------------------|---------------------------|
--4--4-4-4-4-4----4-4-4----|--3--3-3-3-3-3----3-3-3----|
---------------------------|---------------------------|


                                                        
---------------------------|---------------------------|
---------------------------|---------------------------|
--7--7-7-7-7-7----7-7-7----|--5--5-5-5-5-5----5-5-5----|
---------------------------|---------------------------|


                                                        
---------------------------|---------------------------|
---------------------------|---------------------------|
--4--4-4-4-4-4----4-4-4----|--3--3-3-3-3-3----3-3-3----|
---------------------------|---------------------------|


                                                                      
----------------------------------|----------------------------------|
----------------------------------|----------------------------------|
--7-7-7-7-7-7-7-7-5-5-5-5-5-5-5-5-|--3-3-3-3-3-3-3-3-2-2-2-2-2-2-2-2-|
----------------------------------|----------------------------------|


                                                                      
----------------------------------|----------------------------------|
----------------------------------|----------------------------------|
--7-7-7-7-7-7-7-7-5-5-5-5-5-5-5-5-|--3-3-3-3-3-3-3-3-2-2-2-2-2-2-2-2-|
----------------------------------|----------------------------------|


                                                      
--------------------------|--------------------------|
--------------------------|--------------------------|
--4--4-4-4-4-4-4-4--------|--2--2-2-2-2-2-2-0--------|
--------------------------|--------------------------|


                                                              
------------------------------|------------------------------|
------------------------------|------------------------------|
--0--0--0-0-0-0---------------|--2--2--2-2-2-2---------------|
----------------2--2--2-2-2-2-|----------------4--4--4-4-4-4-|


                                                            
-----------------------------|-----------------------------|
-----------------------------|-----------------------------|
--4--4-4-4-4-4-4-4----4-4-4--|--0--0-0-0-0-0-0-0----0-0-0--|
-----------------------------|-----------------------------|


                                                      
--------------------------|--------------------------|
--------------------------|--------------------------|
--------------------------|--------------------2--2--|
--2--2-2-2-2-2-2-2--------|--2--2--4--4--5--5--------|


                                                            
-----------------------------|-----------------------------|
-----------------------------|-----------------------------|
--4--4-4-4-4-4-4-4----4-4-4--|--0--0-0-0-0-0-0-0----0-0-0--|
-----------------------------|-----------------------------|


                                                      
--------------------------|--------------------------|
--------------------------|--------------------------|
--------------------------|--------------------2--2--|
--2--2-2-2-2-2-2-2--------|--2--2--4--4--5--5--------|


                                                              
------------------------------|------------------------------|
------------------------------|------------------------------|
----------------3--3--3-3-3-3-|--0--0--0-0-0-0-2--2--2-2-2-2-|
--0--0--0-0-0-0---------------|------------------------------|


                                                              
------------------------------|------------------------------|
------------------------------|------------------------------|
----------------3--3--3-3-3-3-|--0--0--0-0-0-0-2--2--2-2-2-2-|
--0--0--0-0-0-0---------------|------------------------------|


                                                                                
-------------------|-------------------|-------------------|-------------------|
-------------------|-------------------|-------------------|-------------------|
-------------------|-------------------|-------------------|-------------------|
--0----------------|--0----------------|--0----------------|--0----------------|


                                                              
------------------------------|------------------------------|
------------------------------|------------------------------|
------------------------------|--3--3--3-3-3-3-3--3--3-3-3-3-|
--0--0--0-0-0-0-0--0--0-0-0-0-|------------------------------|


                                                           
------------------------------|---------------------------|
------------------------------|---------------------------|
--5--5--5-5-5-5-5--5--5-5-5-5-|---------------2--0--------|
------------------------------|--5--5--5-5-5--------3--2--|


                                                              
------------------------------|------------------------------|
------------------------------|------------------------------|
------------------------------|--3--3--3-3-3-3-3--3--3-3-3-3-|
--0--0--0-0-0-0-0--0--0-0-0-0-|------------------------------|


                                                           
------------------------------|---------------------------|
------------------------------|---------------------------|
--5--5--5-5-5-5-5--5--5-5-5-5-|---------------2--0--------|
------------------------------|--5--5--5-5-5--------3--2--|


                                                              
------------------------------|------------------------------|
------------------------------|------------------------------|
------------------------------|--5--5--5-5-5-5-5--5--5-5-5-5-|
--2--2--2-2-2-2-2--2--2-2-2-2-|------------------------------|


                                                          
------------------------------|--------------------------|
------------------------------|--------------------------|
--2--2--2-2-2-2-2--2--2-2-2-2-|--4--2--2-----------------|
------------------------------|-----------5--5--4--4--2--|


                                                              
------------------------------|------------------------------|
------------------------------|------------------------------|
------------------------------|--5--5--5-5-5-5-5--5--5-5-5-5-|
--2--2--2-2-2-2-2--2--2-2-2-2-|------------------------------|


                                                          
------------------------------|--------------------------|
------------------------------|--------------------------|
--2--2--2-2-2-2-2--2--2-2-2-2-|--4--2--2-----------------|
------------------------------|-----------5--5--4--4--2--|


                                                                              
--------------------------------------|--------------------------------------|
--------------------------------------|--------------------------------------|
--7--7--7--7--7--7--7--7--7--7--7--7--|--------------------------------------|
--------------------------------------|--8--8--8--8--8--8--8--8--8--8--8--8--|


                                                                              
--------------------------------------|--------------------------------------|
--------------------------------------|--------------------------------------|
--5--5--5--5--5--5--5--5--5--5--5--5--|--------------------------------------|
--------------------------------------|--5--5--5--5--5--5--5--5--5--5--5--5--|


                                                                              
--------------------------------------|--------------------------------------|
--------------------------------------|--------------------------------------|
--------------------------------------|--------------------------------------|
--0--0--0--0--0--0--0--0--0--0--0--0--|--8--8--8--8--8--8--8--8--8--8--8--8--|


                                                                              
--------------------------------------|--------------------------------------|
--------------------------------------|--------------------------------------|
--5--5--5--5--5--5--5--5--5--5--5--5--|--------------------------------------|
--------------------------------------|--5--5--5--5--5--5--5--5--5--5--5--5--|


                                                                              
--------------------------------------|--------------------------------------|
--------------------------------------|--------------------------------------|
--7--7--7--7--7--7--7--7--7--7--7--7--|--------------------------------------|
--------------------------------------|--8--8--8--8--8--8--8--8--8--8--8--8--|


                                                                              
--------------------------------------|--------------------------------------|
--------------------------------------|--------------------------------------|
--5--5--5--5--5--5--5--5--5--5--5--5--|--------------------------------------|
--------------------------------------|--5--5--5--5--5--5--5--5--5--5--5--5--|


                                                                              
--------------------------------------|--------------------------------------|
--------------------------------------|--------------------------------------|
--------------------------------------|--------------------------------------|
--0--0--0--0--0--0--0--0--0--0--0--0--|--8--8--8--8--8--8--8--8--8--8--8--8--|


                                                                 
--------------------------------------|-------------------------|
--------------------------------------|-------------------------|
--5--5--5--5--5--5--5--5--5--5--5--5--|-------------------------|
--------------------------------------|--5--5--5--5--5--5--5----|


                                                              
--------------------|-------------------|--------------------|
--------------------|-------------------|--------------------|
--------------------|--1----------------|--------------------|
--0--------------0--|-------------------|--0--------------0--|


                                                              
--------------------|--------------------|-------------------|
--------------------|--------------------|-------------------|
--0-----------------|--------------------|--1----------------|
-----------1--------|--0--------------0--|-------------------|


                                                               
--------------------|--------------------|-------------------||
--------------------|--------------------|-------------------||
--------------------|--0-----------------|-------------------||
--0--------------0--|-----------1--------|--0----------------||
Comments