Blind Guardian - Welcome To Dying Chords & Tabs

 

Welcome To Dying Chords & Tabs

Blind Guardian Chords & Tabs

Version: 1 Type: Bass Tab 0 ratings
1 star 2 stars 3 stars 4 stars 5 stars
comments

Welcome To Dying Bass Tab

Please listen to the song for full, correct timing. Cheers!

Intro

G|------------|------------|------------|------------|
D|------------|------------|------------|------------|
A|222---------|222---------|222---------|------------|
E|----555-3---|----555-3---|----555-3---|0-----2-----|


Verse 1

G|------------|------------|------------|------------|----------|
D|------------|------------|------------|------------|----------|
A|222>202222>-|------------|------------|------55>---|----------|
E|------------|333>00>-22>-|333>5333>5-5|55>33>---55>|3333>2222>|

                                         "Something savage..."

G|------------|------------|------------|------------|------------|
D|------------|------------|------------|------------|------------|
A|222>202222>-|------------|------------|------55>---|------------|
E|------------|333>00>-22>-|333>5333>5-5|55>33>---55>|3333>2-2-2-2|


Chorus

G|------------|------------| x2
D|------------|------------|
A|22>---55>---|22>---55>---|
E|---00>---55>|---00>---55>|

"...Dying..."


Verse 2

G|---------|-----------|-----------|------------|---------|------------|------------|
D|---------|-----------|-----------|------------|---------|------------|------------|
A|---------|2-3---2-3--|2-3---2-3--|------------|---------|2-3---2-3---|2-3---2-3---|
E|33333333>|-----------|-----------|2222-0--3---|22222222>|------------|------------|

				     "Now I'm stronger..."
[ Tab from: http://www.guitartabs.cc/tabs/b/blind_guardian/welcome_to_dying_btab.html ]
G|----------|--------------|----------|--------------|------------|
D|----------|--------------|----------|--------------|------------|
A|----------|--------22----|----------|--------22----|22>2-2-2----|
E|22222222>-|00-2-33>---00-|22222222>-|00-2-33>---00-|-----------2|

			   "And I'm a stranger to myself..."


Chorus

G|------------|------------| x2
D|------------|------------|
A|22>---55>---|22>---55>---|
E|---00>---55>|---00>---55>|


Guitar Solo

G|---------------|------------|------------|---------------|---------------|
D|---------------|------------|------------|----2>-----2>--|----2>-----2>--|
A|---------------|------------|22222>00000>|4>----2>-------|4>----2>-------|
E|2222>4-4-4-4-44|22>55>44>00>|------------|--5>----55>--4>|--5>----55>--4>|

G|--------|------------|------------|
D|--------|---------22>|---------22>|
A|--------|---22>44>---|---22>44>---|
E|4444444>|44>---------|44>---------|


Verse 3

G|------------|----------|------------|------------|
D|------------|----------|------------|------------|
A|22>---55>---|----------|22>---55>---|------------|
E|---33>---55>|3333>2222>|---33>---55>|3333>2-2-2-2|

"I'm a savage..."


Chorus

G|------------|------------| x2
D|------------|------------|
A|22>---55>---|22>---55>---|
E|---00>---55>|---00>---55>|


Outro

G|-----------|-----------| x2
D|------2222>|------2222>|
A|22>--------|22>--------|
E|---55>-----|---55>-----|

G|------------|------------| x2
D|---------22>|---------22>|
A|---22>44>---|---22>44>---|
E|44>---------|44>---------|

"Welcome to Dying..."

G|------------|------------|------------|------------|
D|------------|------------|------------|------------|
A|------------|------------|------------|------------|
E|444-222-0---|444-222-0---|444-222-0---|444-222-4---|
Comments