Blind Guardian - Trial By Fire Chords & Tabs

 

Trial By Fire Chords & Tabs

Blind Guardian Chords & Tabs

Version: 1 Type: Bass Tab 0 ratings
1 star 2 stars 3 stars 4 stars 5 stars
comments

Trial By Fire Bass Tab

Standard tuning

G||-------------------|--------------------|-------------------|
D||-------------------|--------------------|-------------------|
A||--2----------------|--0--------3--------|--2----------------|
E||-------------------|--------------------|-------------------|


                                                                           
--------------------|--------------------------|--------------------------|
--------------------|--------------------------|--------------------------|
--0--------3--------|--2--2--2--2--2--2--2--2--|--0--0--0--0--3--3--3--3--|
--------------------|--------------------------|--------------------------|


                                                      
--------------------------|--------------------------|
--------------------------|--------------------------|
--2--2--2--2--2--2--2--2--|--0--0--0--0--3--3--3--3--|
--------------------------|--------------------------|


                                                      
--------------------------|--------------------------|
--------------------------|--------------------------|
--2--2--2--2--2--2--2--2--|--0--0--0--0--3--3--3--3--|
--------------------------|--------------------------|


                                                      
--------------------------|--------------------------|
--------------------------|--------------------------|
--2--2--2--2--2--2--2--2--|--0--0--0--0--3--3--3--3--|
--------------------------|--------------------------|


                                                        
|---------------------------|--------------------------|
|*--------------------------|--------------------------|
|*--2--2--2--2--------------|--2--2--2--2--------------|
|---------------2--2--2--2--|--------------2--2--2--2--|


                                                           
--------------------------|------------------------------||
--------------------------|-----------------------------*||
--------------------------|-----------------------------*||
--3--3--3--3--3--3--3--3--|--2--2--2--2--5----3----2-----||


                                                      
--------------------------|--------------------------|
--------------------------|--------------------------|
--2--2--2--2--2--2--2--2--|--3--3--3--3--3--3--3--3--|
--------------------------|--------------------------|


                                                                          
--------------------------|-------------------|--------------------------|
--------------------------|-------------------|--------------------------|
--2--2--2--2--2--2--2--2--|--3----------------|--2--2--2--2--2--2--2--2--|
--------------------------|-------------------|--------------------------|


                                                                          
--------------------------|--------------------------|-------------------|
--------------------------|--------------------------|-------------------|
--3--3--3--3--3--3--3--3--|--2--2--2--2--2--2--2--2--|--3----------------|
--------------------------|--------------------------|-------------------|


                                                      
--------------------------|--------------------------|
--------------------------|--------------------------|
--2--2--2--2--------------|--2--2--2--2--------------|
--------------2--2--2--2--|--------------2--2--2--2--|


                                                         
--------------------------|-----------------------------|
--------------------------|-----------------------------|
--------------------------|-----------------------------|
--3--3--3--3--3--3--3--3--|--2--2--2--2--5----3----2----|


                                                      
--------------------------|--------------------------|
--------------------------|--------------------------|
--2--2--2--2--2--2--2--2--|--3--3--3--3--3--3--3--3--|
--------------------------|--------------------------|


                                                                          
--------------------------|-------------------|--------------------------|
--------------------------|-------------------|--------------------------|
--2--2--2--2--2--2--2--2--|--3----------------|--2--2--2--2--2--2--2--2--|
--------------------------|-------------------|--------------------------|


                                                                          
--------------------------|--------------------------|-------------------|
--------------------------|--------------------------|-------------------|
--3--3--3--3--3--3--3--3--|--2--2--2--2--2--2--2--2--|--3----------------|
--------------------------|--------------------------|-------------------|


                                                                           
--------------------------|--------------------------|--------------------|
--------------------------|--------------------------|--0-----------------|
--------------------------|--------------------------|--------------------|
--2--2--2--2--2--2--2--2--|--0--0--0--0--0--0--0--0--|-----------0--------|


                                                                          
--------------------------|--------------------------|-------------------|
--------------------------|--------------------------|--0----------------|
--------------------------|--------------------------|-------------------|
--2--2--2--2--2--2--2--2--|--0--0--0--0--0--0--0--0--|-------------------|


                                                                               
--------------------|-------------------|------------------|------------------|
--0-----------------|-------------------|------------------|------------------|
--------------------|-------------------|------------------|------------------|
-----------0--------|--7/---------------|------------------|------------------|


                                                                  
-------------------|------------------|--------------------------|
-------------------|------------------|--------------------------|
--2----------------|------------------|--2--2--2--2--2--2--2--2--|
-------------------|------------------|--------------------------|


                                                      
--------------------------|--------------------------|
--------------------------|--------------------------|
--0--0--0--0--3--3--3--3--|--2--2--2--2--2--2--2--2--|
--------------------------|--------------------------|


                                                                       
--------------------------|---------------------|---------------------|
--------------------------|---------------------|---------------------|
--0--0--0--0--3--3--3--3--|---------------------|------3--------------|
--------------------------|--2---2---2----------|--2-------2----------|


                                                                       
---------------------|---------------------|--------------------------|
---------------------|---------------------|--------------------------|
---------------------|------3--------------|--2--2--2--2--2--2--2--2--|
--2---2---2----------|--2-------2----------|--------------------------|


                                                      
--------------------------|--------------------------|
--------------------------|--------------------------|
--------------------------|--2--2--2--2--2--2--2--2--|
--3--3--3--3--3--3--3--3--|--------------------------|


                                                      
--------------------------|--------------------------|
--------------------------|--------------------------|
--------------------------|--2--2--2--2--2--2--2--2--|
--3--3--3--3--3--3--3--3--|--------------------------|


                                                      
--------------------------|--------------------------|
--------------------------|--------------------------|
--------------------------|--2--2--2--2--2--2--2--2--|
--3--3--3--3--3--3--3--3--|--------------------------|


                                                      
--------------------------|--------------------------|
--------------------------|--------------------------|
--------------------------|--2--2--2--2--2--2--2--2--|
--3--3--3--3--3--3--3--3--|--------------------------|


                                                      
--------------------------|--------------------------|
--------------------------|--------------------------|
--------------------------|--2--2--2--2--2--2--2--2--|
--3--3--3--3--3--3--3--3--|--------------------------|

[ Tab from: http://www.guitartabs.cc/tabs/b/blind_guardian/trial_by_fire_btab.html ]
                                                      
--------------------------|--------------------------|
--------------------------|--------------------------|
--------------------------|--2--2--2--2--2--2--2--2--|
--3--3--3--3--3--3--3--3--|--------------------------|


                                                      
--------------------------|--------------------------|
--------------------------|--------------------------|
--------------------------|--2--2--2--2--2--2--2--2--|
--3--3--3--3--3--3--3--3--|--------------------------|


                                                      
--------------------------|--------------------------|
--------------------------|--------------------------|
--------------------------|--2--2--2--2--2--2--2--2--|
--3--3--3--3--3--3--3--3--|--------------------------|


                                                                  
--------------------------|-------------------|------------------|
--------------------------|-------------------|------------------|
--------------------------|-------------------|------------------|
--3--3--3--3--3--3--3--3--|--0----------------|------------------|


                                                                          
--------------------------|--------------------------|-------------------|
--------------------------|--------------------------|-------------------|
--2--2--2--2--2--2--2--2--|--2--2--2--2--2--2--2--2--|-------------------|
--------------------------|--------------------------|--0----------------|


                                                                         
------------------|--------------------------|--------------------------|
------------------|--------------------------|--------------------------|
------------------|--2--2--2--2--2--2--2--2--|--2--2--2--2--2--2--2--2--|
------------------|--------------------------|--------------------------|


                                                         
--------------------------|-----------------------------|
--------------------------|-----------------------------|
--------------------------|-----------------------------|
--3--3--3--3--3--3--3--3--|--2--2--2--2--5----3----2----|


                                                      
--------------------------|--------------------------|
--------------------------|--------------------------|
--2--2--2--2--2--2--2--2--|--2--2--2--2--2--2--2--2--|
--------------------------|--------------------------|


                                                         
--------------------------|-----------------------------|
--------------------------|-----------------------------|
--------------------------|-----------------------------|
--3--3--3--3--3--3--3--3--|--2--2--2--2--5----3----2----|


                                                      
--------------------------|--------------------------|
--------------------------|--------------------------|
--5--5--5--5--2--2--2--2--|--5--5--5--5--2--2--2--2--|
--------------------------|--------------------------|


                                                      
--------------------------|--------------------------|
--------------------------|--------------------------|
--5--5--5--5--2--2--2--2--|--5--5--5--5--2--2--2--2--|
--------------------------|--------------------------|


                                                      
--------------------------|--------------------------|
--------------------------|--------------------------|
--5--5--5--5--2--2--2--2--|--5--5--5--5--2--2--2--2--|
--------------------------|--------------------------|


                                                                            
--------------------------|--------------------------|---------------------|
--------------------------|--------------------------|---------------------|
--5--5--5--5--2--2--2--2--|--5--5--5--5--2--2--2--2--|---------------------|
--------------------------|--------------------------|--2---2---2----------|


                                                                                
---------------------|------------------|------------------|-------------------|
---------------------|------------------|------------------|-------------------|
------3--------------|------------------|------------------|--2----------------|
--2-------2----------|------------------|------------------|-------------------|


                                                                         
------------------|--------------------------|--------------------------|
------------------|--------------------------|--------------------------|
------------------|--2--2--2--2--2--2--2--2--|--0--0--0--0--3--3--3--3--|
------------------|--------------------------|--------------------------|


                                                      
--------------------------|--------------------------|
--------------------------|--------------------------|
--2--2--2--2--2--2--2--2--|--0--0--0--0--3--3--3--3--|
--------------------------|--------------------------|


                                                        
|---------------------------|--------------------------|
|*--------------------------|--------------------------|
|*--2--2--2--2--------------|--2--2--2--2--------------|
|---------------2--2--2--2--|--------------2--2--2--2--|


                                                           
--------------------------|------------------------------||
--------------------------|-----------------------------*||
--------------------------|-----------------------------*||
--3--3--3--3--3--3--3--3--|--2--2--2--2--5----3----2-----||


                                                      
--------------------------|--------------------------|
--------------------------|--------------------------|
--2--2--2--2--2--2--2--2--|--3--3--3--3--3--3--3--3--|
--------------------------|--------------------------|


                                                                          
--------------------------|-------------------|--------------------------|
--------------------------|-------------------|--------------------------|
--2--2--2--2--2--2--2--2--|--3----------------|--2--2--2--2--2--2--2--2--|
--------------------------|-------------------|--------------------------|


                                                                          
--------------------------|--------------------------|-------------------|
--------------------------|--------------------------|-------------------|
--3--3--3--3--3--3--3--3--|--2--2--2--2--2--2--2--2--|--3----------------|
--------------------------|--------------------------|-------------------|


                                                                           
--------------------------|--------------------------|--------------------|
--------------------------|--------------------------|--0-----------------|
--------------------------|--------------------------|--------------------|
--2--2--2--2--2--2--2--2--|--0--0--0--0--0--0--0--0--|-----------0--------|


                                                                          
--------------------------|--------------------------|-------------------|
--------------------------|--------------------------|--0----------------|
--------------------------|--------------------------|-------------------|
--2--2--2--2--2--2--2--2--|--0--0--0--0--0--0--0--0--|-------------------|


                                                              
--------------------|-------------------|--------------------|
--0-----------------|-------------------|--------------------|
--------------------|-------------------|--------------------|
-----------0--------|--7/---------------|--0--------2--------|


                                                               
--------------------|--------------------|--------------------|
--------------------|--------------------|--------------------|
--------------------|--------------------|--5--------7--------|
--3--------5--------|--7--------8--------|--------------------|


                                                       
-------------------|----------------------------------|
-------------------|----------------------------------|
--9----------------|--9-9-9-9-9-9-9-9-9-9-9-9-9-9-9-9-|
-------------------|----------------------------------|


                                                                      
----------------------------------|----------------------------------|
----------------------------------|----------------------------------|
--9-9-9-9-9-9-9-9-9-9-9-9-9-9-9-9-|--9-9-9-9-9-9-9-9-9-9-9-9-9-9-9-9-|
----------------------------------|----------------------------------|


                                                          
----------------------------------|---------------------||
----------------------------------|---------------------||
--9-9-9-9-9-9-9-9-9-9-9-9-9-9-9-9-|--9----9/---x--------||
----------------------------------|---------------------||
Comments