Blind Guardian - Traveler In Time Chords & Tabs

 

Traveler In Time Chords & Tabs

Blind Guardian Chords & Tabs

Version: 1 Type: Bass Tab 0 ratings
1 star 2 stars 3 stars 4 stars 5 stars
comments

Traveler In Time Bass Tab

G||-------------------|-------------------------|-------------------|
D||-------------------|-------------------------|-------------------|
A||-------------------|-------------------------|--1----------------|
E||--0----------------|--0----0--0--0--0--------|-------------------|


                                                                    
-------------------------|--------------------|--------------------|
-------------------------|--------------------|--------------------|
-------------------------|---------------0----|--------------------|
--3----3--3--3--3--------|--0-----------------|--2--------6--------|


                                                               
--------------------|--------------------|--------------------|
--------------------|--------------------|--------------------|
---------------0----|-----------2--------|---------------0----|
--0-----------------|--2-----------------|--0-----------------|


                                                               
--------------------|--------------------|--------------------|
--------------------|--------------------|--------------------|
--------------------|---------------0----|-----------2--------|
--2--------6--------|--0-----------------|--2-----------------|


                                                               
-------------------|---------------------|--------------------|
--2----------------|---------------------|--------------------|
-------------------|--1------------------|--3-----------------|
-------------------|-----------1------1--|-----------------0--|


                                    
-----------------------------------|
-----------------------------------|
-----------------------------------|
--0--------------------------------|


                                                                     
--------------------------------------------------------------------|
--------------------------------------------------------------------|
--7-7-7-6-6-6-7-7-7-9-9-9-10-10-10-10-10-10-10-12-12-12-12-12-12-12-|
--------------------------------------------------------------------|


                                                  
-------------------------------------------------|
-------------------------------------------------|
--9-9-9-9-9-9-9-9-9-9-9-9-9-9-6-6-6-6-6-6-6-6----|
-------------------------------------------------|


                                                                     
--------------------------------------------------------------------|
--------------------------------------------------------------------|
--7-7-7-6-6-6-7-7-7-9-9-9-10-10-10-10-10-10-10-12-12-12-12-12-12-12-|
--------------------------------------------------------------------|


                                                  
-------------------------------------------------|
------------------------------9-9-9-9-9-9-9-9----|
--9-9-9-9-9-9-9-9-9-9-9-9-9-9--------------------|
-------------------------------------------------|


                                                             
------------------------------------------------------------|
------------------------------------------------------------|
--------------------------------3-3-3-3-3-3-3-5-5-5-5-5-5-5-|
--0-0-0-0-0-0-0-0-0-0-0-0-0-0-0-----------------------------|


                                                  
-------------------------------------------------|
-------------------------------------------------|
--5-5-5-5-5-5-5-5-5-5-5-5-5-2-2-2-2-2-2-2-2-2-2--|
-------------------------------------------------|


                                                             
------------------------------------------------------------|
------------------------------------------------------------|
--------------------------------3-3-3-3-3-3-3-5-5-5-5-5-5-5-|
--0-0-0-0-0-0-0-0-0-0-0-0-0-0-0-----------------------------|


                                                               
--------------------------------------------------------------|
--------------------------------------------------------------|
--5-5-5-5-5-5-5-5-5-5-5-5-5-5-5-2-2-2-2-2-2-2-2-2-2-2-2-2-2-2-|
--------------------------------------------------------------|


                                                               
--------------------------------------------------------------|
--------------------------------------------------------------|
--------------------------------0-0-0-0-0-0-0-0-0-0-0-0-0-0-0-|
--0-0-0-0-0-0-0-0-0-0-0-0-0-0-0-------------------------------|


                                                               
--------------------------------------------------------------|
--------------------------------------------------------------|
--2-2-2-2-2-2-2-2-2-2-2-2-2-2-2-2-2-2-2-2-2-2-2-2-2-2-2-2-2-2-|
--------------------------------------------------------------|


                                                               
--------------------------------------------------------------|
--------------------------------------------------------------|
--------------------------------3-3-3-3-3-3-3-3-3-3-3-3-3-3-3-|
--0-0-0-0-0-0-0-0-0-0-0-0-0-0-0-------------------------------|


                                                               
--------------------------------------------------------------|
--------------------------------------------------------------|
--0-0-0-0-0-0-0-0-0-0-0-0-0-0-0-2-2-2-2-2-2-2-2-2-2-2-2-2-2-2-|
--------------------------------------------------------------|


                                          
--------------------|--------------------|
--------------------|--------------------|
--5--------5--------|--3--------0--------|
--------------------|--------------------|


                                                               
--------------------------------------------------------------|
--------------------------------------------------------------|
--0-0-0-0-0-0-0-0-0-0-0-0-0-0-0-2-2-2-2-2-2-2-2-2-2-2-2-2-2-2-|
--------------------------------------------------------------|


                                                           
----------------------------------------------------------|
----------------------------------------------------------|
--3-3-3-3-3-3-3-2-2-2-2-2-2-2-5-5-5-5-5-5-5-3-3-3-3-3-3-3-|
----------------------------------------------------------|


                                                               
--------------------------------------------------------------|
--------------------------------------------------------------|
--0-0-0-0-0-0-0-0-0-0-0-0-0-0-0-2-2-2-2-2-2-2-2-2-2-2-2-2-2-2-|
--------------------------------------------------------------|


                                                           
----------------------------------------------------------|
----------------------------------------------------------|
--3-3-3-3-3-3-3-2-2-2-2-2-2-2-5-5-5-5-5-5-5-3-3-3-3-3-3-3-|
----------------------------------------------------------|


                      
---------------------|
---------------------|
---------------------|
--5--------1----3----|


                                                               
--------------------------------------------------------------|
--------------------------------------------------------------|
--0-0-0-0-0-0-0-0-0-0-0-0-0-0-0-1-1-1-1-1-1-1-1-1-1-1-1-1-1-1-|
--------------------------------------------------------------|


                                                             
------------------------------------------------------------|
------------------------------------------------------------|
--------------------------------5-5-5-5-5-5-5---------------|
--1-1-1-1-1-1-1-1-1-1-1-1-1-1-1---------------3-3-3-3-3-3-3-|


                                                               
--------------------------------------------------------------|
--------------------------------------------------------------|
--3-3-3-3-3-3-3-3-3-3-3-3-3-3-3-------------------------------|
--------------------------------1-1-1-1-1-1-1-1-1-1-1-1-1-1-1-|


                                                                
-------------------|---------------------|---------------------|
-------------------|---------------------|---------------------|
--1----------------|------------0--------|-------3-------------|
-------------------|--1----3-------------|--1---------0--------|


                                            
---------------------|---------------------|
---------------------|---------------------|
------------0--------|-------3-------------|
--1----3-------------|--1---------0--------|


                                                             
------------------------------------------------------------|
------------------------------------------------------------|
------------------------------2-2-2-2-2-2-2-2-2-2-2-2-2-2-2-|
--0-0-0-0-0-0-0-2-2-2-2-2-2-2-------------------------------|


                                                               
--------------------------------------------------------------|
--------------------------------------------------------------|
--0-0-0-0-0-0-0-0-0-0-0-0-0-0-0-2-2-2-2-2-2-2-2-2-2-2-2-2-2-2-|
--------------------------------------------------------------|


                                                               
--------------------------------------------------------------|
--------------------------------------------------------------|
--0-0-0-0-0-0-0-0-0-0-0-0-0-0-0-0-0-0-0-0-0-0-0-0-0-0-0-0-0-0-|
--------------------------------------------------------------|


                                                               
--------------------------------------------------------------|
--------------------------------------------------------------|
--------------------------------------------------------------|
--5-5-5-5-5-5-5-5-5-5-5-5-5-5-5-5-5-5-5-5-5-5-5-5-5-5-5-5-5-5-|


                                                               
--------------------------------------------------------------|
--------------------------------------------------------------|
--5-5-5-5-5-5-5-5-5-5-5-5-5-5-5-5-5-5-5-5-5-5-5-5-5-5-5-5-5-5-|
--------------------------------------------------------------|


                                                               
--------------------------------------------------------------|
--------------------------------------------------------------|
--------------------------------------------------------------|
--1-1-1-1-1-1-1-1-1-1-1-1-1-1-1-1-1-1-1-1-1-1-1-1-1-1-1-1-1-1-|


                                               
-------------------|--------------------------|
-------------------|--------------------------|
-------------------|--3----3----3-------------|
--0----------------|-----------------3--------|


                                                               
--------------------------------------------------------------|
--------------------------------------------------------------|
--------------------------------------------------------------|
--1-1-1-1-1-1-1-1-1-1-1-1-1-1-1-1-1-1-1-1-1-1-1-1-1-1-1-1-1-1-|


                                                                              
--------------------------------------|--------------------------------------|
--------------------------------------|--------------------------------------|
------------------7---------0----1----|------------------7---------0----1----|
--0-0-0-0-0-0-0-0------3--------------|--0-0-0-0-0-0-0-0------3--------------|


                                                                              
--------------------------------------|--------------------------------------|
--------------------------------------|--------------------------------------|
------------------7---------0----1----|------------------7---------0----1----|
--0-0-0-0-0-0-0-0------3--------------|--0-0-0-0-0-0-0-0------3--------------|


                                                               
--------------------------------------------------------------|
--------------------------------------------------------------|
--------------------------------------------------------------|
--1-1-1-1-1-1-1-1-1-1-1-1-1-1-1-1-1-1-1-1-1-1-1-1-1-1-1-1-1-1-|


                                                               
--------------------------------------------------------------|
--------------------------------------------------------------|
--5-5-5-5-5-5-5-5-5-5-5-5-5-5-5-------------------------------|
--------------------------------3-3-3-3-3-3-3-3-3-3-3-3-3-3-3-|


                                                               
--------------------------------------------------------------|
--------------------------------------------------------------|
--3-3-3-3-3-3-3-3-3-3-3-3-3-3-3-------------------------------|
--------------------------------1-1-1-1-1-1-1-1-1-1-1-1-1-1-1-|


                                                                
-------------------|---------------------|---------------------|
-------------------|---------------------|---------------------|
--1----------------|------------0--------|-------3-------------|
-------------------|--1----3-------------|--1---------0--------|

[ Tab from: http://www.guitartabs.cc/tabs/b/blind_guardian/traveler_in_time_btab.html ]
                                                                       
---------------------|---------------------|--------------------------|
---------------------|---------------------|--------------------------|
------------0--------|-------3-------------|--0--0--0--0--2--2--2--2--|
--1----3-------------|--1---------0--------|--------------------------|


                                                      
--------------------------|--------------------------|
--------------------------|--------------------------|
--0--0--0--0--------------|--3--3--3--3--4--4--4--4--|
--------------3--3--3--3--|--------------------------|


                                                      
--------------------------|--------------------------|
--------------------------|--------------------------|
--3--3--3--3--2--2--2--2--|--0--0--0--0--------------|
--------------------------|--------------4--4--4--4--|


                                                      
--------------------------|--------------------------|
--------------------------|--------------------------|
--3--3--3--3--2--2--2--2--|--0--0--0--0--------------|
--------------------------|--------------4--4--4--4--|


                                                      
--------------------------|--------------------------|
--------------------------|--------------------------|
--3--3--3--3--3--3--3--3--|--------------------------|
--------------------------|--1--1--1--1--1--1--1--1--|


                                                      
--------------------------|--------------------------|
--------------------------|--------------------------|
--0--0--0--0--0--0--0--0--|--------------0--0--0--0--|
--------------------------|--1--1--3--3--------------|


                                                                           
--------------------------|--------------------------|--------------------|
--------------------------|--------------------------|--------------------|
--3--3--------2--2--------|--3--3--------2--2--------|--------------------|
--------3--3--------1--1--|--------3--3--------1--1--|--0------------0----|


                                                               
--------------------|--------------------|--------------------|
--------------------|--------------------|--------------------|
--3------------3----|--------------------|--3------------3----|
--------------------|--0------------0----|--------------------|


                                                      
--------------------------|--------------------------|
--------0--0--------------|--------------0--0--0--0--|
--0--0--------------------|--3--3--3--3--------------|
--------------0--0--0--0--|--------------------------|


                                                      
--------------------------|--------------------------|
--------0--0--------------|--------------0--0--0--0--|
--0--0--------------------|--3--3--3--3--------------|
--------------0--0--0--0--|--------------------------|


                                                             
------------------------------------------------------------|
------------------------------------------------------------|
--------------------------------3-3-3-3-3-3-3-5-5-5-5-5-5-5-|
--0-0-0-0-0-0-0-0-0-0-0-0-0-0-0-----------------------------|


                                                  
-------------------------------------------------|
-------------------------------------------------|
--5-5-5-5-5-5-5-5-5-5-5-5-5-2-2-2-2-2-2-2-2-2-2--|
-------------------------------------------------|


                                                             
------------------------------------------------------------|
------------------------------------------------------------|
--------------------------------3-3-3-3-3-3-3-5-5-5-5-5-5-5-|
--0-0-0-0-0-0-0-0-0-0-0-0-0-0-0-----------------------------|


                                                               
--------------------------------------------------------------|
--------------------------------------------------------------|
--5-5-5-5-5-5-5-5-5-5-5-5-5-5-5-2-2-2-2-2-2-2-2-2-2-2-2-2-2-2-|
--------------------------------------------------------------|


                                                               
--------------------------------------------------------------|
--------------------------------------------------------------|
--------------------------------0-0-0-0-0-0-0-0-0-0-0-0-0-0-0-|
--0-0-0-0-0-0-0-0-0-0-0-0-0-0-0-------------------------------|


                                                               
--------------------------------------------------------------|
--------------------------------------------------------------|
--2-2-2-2-2-2-2-2-2-2-2-2-2-2-2-2-2-2-2-2-2-2-2-2-2-2-2-2-2-2-|
--------------------------------------------------------------|


                                                                 
----------------------------------------------------------------|
----------------------------------------------------------------|
--------------------------------3-3-3-3-3-3-3-3-3-3-3-3-3-3-3-3-|
--0-0-0-0-0-0-0-0-0-0-0-0-0-0-0---------------------------------|


                                                               
--------------------------------------------------------------|
--------------------------------------------------------------|
--0-0-0-0-0-0-0-0-0-0-0-0-0-0-0-2-2-2-2-2-2-2-2-2-2-2-2-2-2-2-|
--------------------------------------------------------------|


                                          
--------------------|--------------------|
--------------------|--------------------|
--5--------5--------|--3--------2--------|
--------------------|--------------------|


                                                               
--------------------------------------------------------------|
--------------------------------------------------------------|
--0-0-0-0-0-0-0-0-0-0-0-0-0-0-0-2-2-2-2-2-2-2-2-2-2-2-2-2-2-2-|
--------------------------------------------------------------|


                                                           
----------------------------------------------------------|
----------------------------------------------------------|
--3-3-3-3-3-3-3-2-2-2-2-2-2-2-5-5-5-5-5-5-5-3-3-3-3-3-3-3-|
----------------------------------------------------------|


                                                               
--------------------------------------------------------------|
--------------------------------------------------------------|
--0-0-0-0-0-0-0-0-0-0-0-0-0-0-0-2-2-2-2-2-2-2-2-2-2-2-2-2-2-2-|
--------------------------------------------------------------|


                                                           
----------------------------------------------------------|
----------------------------------------------------------|
--3-3-3-3-3-3-3-2-2-2-2-2-2-2-5-5-5-5-5-5-5-3-3-3-3-3-3-3-|
----------------------------------------------------------|


                                                               
--------------------------------------------------------------|
--------------------------------------------------------------|
--3-3-3-3-3-3-3-3-3-3-3-3-3-3-3-5-5-5-5-5-5-5-5-5-5-5-5-5-5-5-|
--------------------------------------------------------------|


                                                               
--------------------------------------------------------------|
--------------------------------------------------------------|
--------------------------------1-1-1-1-1-1-1-1-1-1-1-1-1-1-1-|
--4-4-4-4-4-4-4-4-4-4-4-4-4-4-4-------------------------------|


                                                               
--------------------------------------------------------------|
--------------------------------------------------------------|
--3-3-3-3-3-3-3-3-3-3-3-3-3-3-3-5-5-5-5-5-5-5-5-5-5-5-5-5-5-5-|
--------------------------------------------------------------|


                                                               
--------------------------------------------------------------|
--------------------------------------------------------------|
--1-1-1-1-1-1-1-1-1-1-1-1-1-1-1-------------------------------|
--------------------------------3-3-3-3-3-3-3-3-3-3-3-3-3-3-3-|


                                                                             
--------------------------------|---------------------|---------------------|
--------------------------------|---------------------|---------------------|
--7----5----3----2---------2----|------------0--------|------------0--------|
----------------------3---------|--1----3-------------|--1----3-------------|


                                            
---------------------|---------------------|
---------------------|---------------------|
------------0--------|------------0--------|
--1----3-------------|--1----3-------------|


                                                               
--------------------------------------------------------------|
--------------------------------------------------------------|
--1-1-1-1-1-1-1-1-1-1-1-1-1-1-1-------------------------------|
--------------------------------3-3-3-3-3-3-3-3-3-3-3-3-3-3-3-|


                                                               
--------------------------------------------------------------|
--------------------------------------------------------------|
--3-3-3-3-3-3-3-3-3-3-3-3-3-3-3-------------------------------|
--------------------------------1-1-1-1-1-1-1-1-1-1-1-1-1-1-1-|


                                                                
-------------------|---------------------|---------------------|
-------------------|---------------------|---------------------|
--1----------------|------------0--------|-------3-------------|
-------------------|--1----3-------------|--1---------0--------|


                                                                
---------------------|---------------------|-------------------|
---------------------|---------------------|-------------------|
------------0--------|-------3-------------|-------------------|
--1----3-------------|--1---------0--------|--1----------------|


                    
-------------------|
-------------------|
-------------------|
--3----------------|


                                                              
-------------------------------------------------------------|
-------------------------------------------------------------|
-------------------------------------------------------------|
--5-5-5-4-4-4-5-5-5-7-7-7-8-8-8-8-8-8-8-10-10-10-10-10-10-10-|


                                                           
----------------------------------------------------------|
----------------------------------------------------------|
----------------------------------------------------------|
--7-7-7-7-7-7-7-7-7-7-7-7-7-7-4-4-4-4-4-4-4-4-4-4-4-4-4-4-|


                                                       
------------------------------------------------------|
------------------------------------------------------|
----------------------------------------5-5-5-5-5-5-5-|
--5-5-5-4-4-4-5-5-5-7-7-7-8-8-8-8-8-8-8---------------|


                                                  
-------------------------------------------------|
-------------------------------------------------|
--6-6-6-6-6-6-6-6-6-6-6-6-6-6-7-7-7-7-7-7-7-7----|
-------------------------------------------------|


                                                              
-------------------------------------------------------------|
-------------------------------------------------------------|
-------------------------------------------------------------|
--5-5-5-4-4-4-5-5-5-7-7-7-8-8-8-8-8-8-8-10-10-10-10-10-10-10-|


                                                           
----------------------------------------------------------|
----------------------------------------------------------|
----------------------------------------------------------|
--7-7-7-7-7-7-7-7-7-7-7-7-7-7-4-4-4-4-4-4-4-4-4-4-4-4-4-4-|


                                                       
------------------------------------------------------|
------------------------------------------------------|
----------------------------------------5-5-5-5-5-5-5-|
--5-5-5-4-4-4-5-5-5-7-7-7-8-8-8-8-8-8-8---------------|


                                                                       
-------------------------------------------------|--------------------|
-------------------------------------------------|--------------------|
--6-6-6-6-6-6-6-6-6-6-6-6-6-6-7-7-7-7-7-7-7-7----|--0-----------------|
-------------------------------------------------|-----------1--------|


                                                              
-------------------|--------------------|--------------------|
-------------------|--------------------|--------------------|
-------------------|--0-----------------|--------------------|
--0----------------|-----------1--------|--0--------0--------|


                                                              
--------------------|-------------------|--------------------|
--------------------|-------------------|--------------------|
--0-----------------|-------------------|--0-----------------|
-----------1--------|--0----------------|-----------1--------|


                                                
-------------------|-------------------|------||
-------------------|-------------------|------||
-------------------|-------------------|------||
--0----------------|--0----------------|------||
Comments