Blind Guardian - To France Chords & Tabs

 

To France Chords & Tabs

Blind Guardian Chords & Tabs

Version: 1 Type: Bass Tab 0 ratings
1 star 2 stars 3 stars 4 stars 5 stars
comments

To France Bass Tab

This is more of an advanced bass tab. Standard Tuning, good luck!

G||------------------|------------------|------------------|------------------|
D||------------------|------------------|------------------|------------------|
A||------------------|------------------|------------------|------------------|
E||------------------|------------------|------------------|------------------|


                                                                                
------------------|-----11-----11-----11-----11--|-----11-----11------9-----9--|
------------------|--9------9------9------9------|--9------9-------------7-----|
------------------|------------------------------|----------------12-----------|
------------------|------------------------------|-----------------------------|


                                                             
-----9-----9-----6-----6--|--4--11------13------14------16--|
--7-----7-----------4-----|---------11------12------14------|
--------------9-----------|---------------------------------|
--------------------------|---------------------------------|


                                                                      
----------------------------------|----------------------------------|
------16------16------16------16--|------16------16------14------14--|
--14------14------14------14------|--14------14--------------12------|
----------------------------------|------------------17--------------|


                                                                    
---------------------------------|-----11------13------14------16--|
------14------14------11-----11--|--9------11------12------14------|
--12------12--------------9------|---------------------------------|
------------------14-------------|---------------------------------|


                                                                      
------18------16------16------18--|----------------------------------|
--16--------------18------14------|------19------19------19------19--|
----------19----------------------|--17------17------17------17------|
----------------------------------|----------------------------------|


                                                                      
------16------16------16------16--|------18------18------18------18--|
----------14------14------14------|--16------16------16------16------|
--19------------------------------|----------------------------------|
----------------------------------|----------------------------------|


                                                                      
------18------16------16------18--|----------------------------------|
--16--------------18------14------|------19------19------19------19--|
----------19----------------------|--17------17------17------17------|
----------------------------------|----------------------------------|


                                                                      
------16------16------16------16--|------18------18------18------18--|
----------14------14------14------|--16------16------16------16------|
--19------------------------------|----------------------------------|
----------------------------------|----------------------------------|


                                                                      
------18------18------18------18--|----------------------------------|
--16------16------16------16------|------16------16------16------16--|
----------------------------------|----------14------14------14------|
----------------------------------|--19------------------------------|


                                                                     
----------------------------------|---------------------------------|
------16------16------14------14--|------14------14------11-----11--|
--14------14--------------12------|--12------12--------------9------|
------------------17--------------|------------------14-------------|


                                                              
-------------9-----11-----11--|-----11-----11-----11-----11--|
-----11---------9------9------|--9------9------9------9------|
--9------12-------------------|------------------------------|
------------------------------|------------------------------|


                                                         
-----11-----11------9-----9--|-----9-----9-----6-----6--|
--9------9-------------7-----|--7-----7-----------4-----|
----------------12-----------|--------------9-----------|
-----------------------------|--------------------------|


                                                                     
--4--11------13------14------16--|----------------------------------|
---------11------12------14------|------16------16------16------16--|
---------------------------------|--14------14------14------14------|
---------------------------------|----------------------------------|


                                                                     
----------------------------------|---------------------------------|
------16------16------14------14--|------14------14------11-----11--|
--14------14--------------12------|--12------12--------------9------|
------------------17--------------|------------------14-------------|


                                                                     
-----11------13------14------16--|------18------16------16------18--|
--9------11------12------14------|--16--------------18------14------|
---------------------------------|----------19----------------------|
---------------------------------|----------------------------------|


                                                                      
----------------------------------|------16------16------16------16--|
------19------19------19------19--|----------14------14------14------|
--17------17------17------17------|--19------------------------------|
----------------------------------|----------------------------------|


                                                                      
------18------18------18------18--|------18------16------16------18--|
--16------16------16------16------|--16--------------18------14------|
----------------------------------|----------19----------------------|
----------------------------------|----------------------------------|


                                                                      
----------------------------------|------16------16------16------16--|
------19------19------19------19--|----------14------14------14------|
--17------17------17------17------|--19------------------------------|
----------------------------------|----------------------------------|


                                                                      
------18------18------18------18--|------18------18------18------18--|
--16------16------16------16------|--16------16------16------16------|
----------------------------------|----------------------------------|
----------------------------------|----------------------------------|


                                                                      
----------------------------------|----------------------14------14--|
------19------19------19------19--|------19------19------------------|
--17------17------17------17------|--17------17------16------16------|
----------------------------------|----------------------------------|


                                                                      
------14------14------14------14--|------14------14------14------14--|
----------------------------------|--12------12------12------12------|
--16------16------16------16------|----------------------------------|
----------------------------------|----------------------------------|


                                                                      
------14------14------14------14--|------14------14------14------14--|
--12------12------12------12------|--12------12------11------11------|
----------------------------------|----------------------------------|
----------------------------------|----------------------------------|


                                                                      
------14------14------14------14--|------14------14------16------16--|
--11------11------11------11------|--12------12------14------14------|
----------------------------------|----------------------------------|
----------------------------------|----------------------------------|


                                                                      
------18------16------16------18--|----------------------------------|
--16--------------18------14------|------19------19------19------19--|
----------19----------------------|--17------17------17------17------|
----------------------------------|----------------------------------|

[ Tab from: http://www.guitartabs.cc/tabs/b/blind_guardian/to_france_btab.html ]
                                                                      
------16------16------16------16--|------18------18------18------18--|
----------14------14------14------|--16------16------16------16------|
--19------------------------------|----------------------------------|
----------------------------------|----------------------------------|


                                                                      
------18------16------16------18--|----------------------------------|
--16--------------18------14------|------19------19------19------19--|
----------19----------------------|--17------17------17------17------|
----------------------------------|----------------------------------|


                                                                      
------16------16------16------16--|------18------18------18------18--|
----------14------14------14------|--16------16------16------16------|
--19------------------------------|----------------------------------|
----------------------------------|----------------------------------|


                                                                      
------18------18------18------18--|----------------------------------|
--16------16------16------16------|------16------16------16------16--|
----------------------------------|----------14------14------14------|
----------------------------------|--19------------------------------|


                                                                     
----------------------------------|---------------------------------|
------16------16------14------14--|------14------14------11-----11--|
--14------14--------------12------|--12------12--------------9------|
------------------17--------------|------------------14-------------|


                                                              
-------------9-----11-----11--|-----11-----11-----11-----11--|
-----11---------9------9------|--9------9------9------9------|
--9------12-------------------|------------------------------|
------------------------------|------------------------------|


                                                         
-----11-----11------9-----9--|-----9-----9-----6-----6--|
--9------9-------------7-----|--7-----7-----------4-----|
----------------12-----------|--------------9-----------|
-----------------------------|--------------------------|


                                                                  
--4--11-----9-----11------11--|------14------14------14------14--|
---------7-----9------11------|--12------12------12------12------|
------------------------------|----------------------------------|
------------------------------|----------------------------------|


                                                                      
------14------14------14------14--|------14------14------14------14--|
--12------12------11------11------|--11------11------11------11------|
----------------------------------|----------------------------------|
----------------------------------|----------------------------------|


                                                                      
------14------14------14------14--|------14------14------14------14--|
--12------12------12------12------|--12------12------12------12------|
----------------------------------|----------------------------------|
----------------------------------|----------------------------------|


                                                                      
------14------14------14------14--|------14------14------14------14--|
--12------12------11------11------|--11------11------11------11------|
----------------------------------|----------------------------------|
----------------------------------|----------------------------------|


                                                                      
------14------14------16------16--|------18------16------16------18--|
--12------12------14------14------|--16--------------18------14------|
----------------------------------|----------19----------------------|
----------------------------------|----------------------------------|


                                                                      
----------------------------------|------16------16------16------16--|
------19------19------19------19--|----------14------14------14------|
--17------17------17------17------|--19------------------------------|
----------------------------------|----------------------------------|


                                                                      
------18------18------18------18--|------18------16------16------18--|
--16------16------16------16------|--16--------------18------14------|
----------------------------------|----------19----------------------|
----------------------------------|----------------------------------|


                                                                      
----------------------------------|------16------16------16------16--|
------19------19------19------19--|----------14------14------14------|
--17------17------17------17------|--19------------------------------|
----------------------------------|----------------------------------|


                                                                      
------18------18------18------18--|------18------18------18------18--|
--16------16------16------16------|--16------16------16------16------|
----------------------------------|----------------------------------|
----------------------------------|----------------------------------|


                                                                            
------------------|------------------|------------------|------------------|
------------------|------------------|------------------|------------------|
------------------|------------------|------------------|------------------|
------------------|------------------|------------------|------------------|


                                                                            
------------------|------------------|------------------|------------------|
------------------|------------------|------------------|------------------|
------------------|------------------|------------------|------------------|
------------------|------------------|------------------|------------------|


                                                             
--4--11-----11-----11-----11--|-----11-----11------9-----9--|
---------9------9------9------|--9------9-------------7-----|
------------------------------|----------------12-----------|
------------------------------|-----------------------------|


                                                        
-----9-----9-----6-----6--|-----6-----9-----11-----11--|
--7-----7-----------4-----|--4-----7-----9------9------|
--------------9-----------|----------------------------|
--------------------------|----------------------------|


                                                             
-----11-----11-----11-----11--|-----11-----11------9-----9--|
--9------9------9------9------|--9------9-------------7-----|
------------------------------|----------------12-----------|
------------------------------|-----------------------------|


                                                        
-----9-----9-----6-----6--|-----6-----9-----11-----11--|
--7-----7-----------4-----|--4-----7-----9------9------|
--------------9-----------|----------------------------|
--------------------------|----------------------------|


                                                             
-----11-----11-----11-----11--|-----11-----11------9-----9--|
--9------9------9------9------|--9------9-------------7-----|
------------------------------|----------------12-----------|
------------------------------|-----------------------------|


                                                           
-----9-----9-----6-----6--|-----9-----11------11------14--|
--7-----7-----------4-----|--7-----9------11------12------|
--------------9-----------|-------------------------------|
--------------------------|-------------------------------|


                                                              
------11-----11-----11-----11--|-----11-----11------9-----9--|
----------9------9------9------|--9------9-------------7-----|
--14---------------------------|----------------12-----------|
-------------------------------|-----------------------------|


                                                           
-----9-----9-----6-----6--|-----9-----11------11------14--|
--7-----7-----------4-----|--7-----9------11------12------|
--------------9-----------|-------------------------------|
--------------------------|-------------------------------|


                                                              
------11-----11-----11-----11--|-----11-----11------9-----9--|
----------9------9------9------|--9------9-------------7-----|
--14---------------------------|----------------12-----------|
-------------------------------|-----------------------------|


                                                                        
-----9-----9-----6-----6--|-----9-----11------11------14--|---|---|---||
--7-----7-----------4-----|--7-----9------11------12------|---|---|---||
--------------9-----------|-------------------------------|---|---|---||
--------------------------|-------------------------------|---|---|---||
Comments