Blind Guardian - Time Stands Still Chords & Tabs

 

Time Stands Still Chords & Tabs

Blind Guardian Chords & Tabs

Version: 1 Type: Bass Tab 0 ratings
1 star 2 stars 3 stars 4 stars 5 stars
comments

Time Stands Still Bass Tab

Tune Down

F#||--------------------|---------------------|----------------------|
C#||--11----------------|---------------------|----------------------|
G#||--11----------------|---------------------|----------------------|
D#||--9-----------------|--9--------9----9----|--9----9----9----9----|


                                                               
-------------------|-------------------|----------------------|
-------------------|-------------------|--11------------------|
-------------------|-------------------|--11------------------|
--9-9-9-9-9-9-7-9--|--9----------------|--9---------------14/-|


                                                                           
------------------------|------------------------|------------------------|
------------------------|------------------------|------------------------|
------------------------|------------------------|------------------------|
--9---9---9/-5---5---5/-|--9---9---9/-5---5---5/-|--9---9---9/-5---5---5/-|


                                                    
--------------------|------------------------------|
--------------------|------------------------------|
-----------2--------|------------------------------|
--2-----------------|--9-9-9-9-9-9-9-9-9-9-9/5-----|


                                                              
------------------------------|------------------------------|
------------------------------|------------------------------|
------------------------------|------------------------------|
--9-9-9-9-9-9-9-9-9-9-9/5-----|--9-9-9-9-9-9-9-9-9-9-9/5-----|


                                                        
------------------------------|------------------------|
------------------------------|------------------------|
------------------------------|------------------------|
--9-9-9-9-9-9-9-9-9-9-9/5-----|--9---9---9/-5---5---5/-|


                                                                             
------------------------|------------------------|--------------------------|
------------------------|------------------------|--------------------------|
------------------------|------------------------|--------------------------|
--9---9---9/-5---5---5/-|--9---9---9/-5---5---5/-|--2-2-2-2-2-2-2/-7--------|


                                                                           
------------------------|------------------------|------------------------|
------------------------|------------------------|------------------------|
------------------------|------------------------|------------------------|
--9---9---9/-5---5---5/-|--9---9---9/-5---5---5/-|--9---9---9/-5---5---5/-|


                                                                 
--------------------|---------------------|---------------------|
--------------------|---------------------|-----------6---------|
-----------2--------|--4--------2----4----|--4-------------4----|
--2-----------------|---------------------|---------------------|


                                                                 
---------------------|---------------------|--------------------|
---------------------|-----------4---------|--------------------|
--4--------2----4----|--4-------------4----|-----------4--------|
---------------------|---------------------|--4-----------------|


                                                               
--------------------|--------------------|--------------------|
--------------------|--------------------|--------------------|
--------------------|--2--------4--------|--------------------|
--2--------4--------|--------------------|--2--------4--------|


                                                               
--------------------|--------------------|--------------------|
--------------------|--------------------|--------------------|
-----------4--------|--------------------|--2--------4--------|
--4-----------------|--2--------4--------|--------------------|


                                                                
--------------------|------------------------------------------|
--------------------|------------------------------------------|
--------------------|--4---4-4-4-4---4-4-4-4---4-4-4-4---4-4-4-|
--2--------4--------|------------------------------------------|


                                                                              
------------------------------------------|----------------------------------|
------------------------------------------|----------------------------------|
--4---4-4-4-4---4-4-4-4---4-4-4-4---4-4-4-|--4-4-4-4-4-4-4-4-6-6-6-6-6-6-6-6-|
------------------------------------------|----------------------------------|


                                                                        
-----------------------------|--------------------|--------------------|
-----------------------------|--------------------|--------------------|
--7-7-7-7-7-7-7-7-7----------|--------------------|--5--------2--------|
-----------------------12/---|--5--------2--------|--------------------|


                                                             
-------------------|--------------------|-------------------|
-------------------|--------------------|-------------------|
--4----------------|----------5---------|--4----------------|
-------------------|---------------5----|-------------------|


                                                              
--------------------|-------------------|--------------------|
--------------------|-------------------|--------------------|
----------5---------|--4----------------|----------5---------|
---------------5----|-------------------|---------------5----|


                                                                           
-------------------|--------------------|---------------------------------|
-------------------|--------------------|---------------------------------|
--4----------------|----------5---------|---------------------------------|
-------------------|---------------5----|--9-9-9-9-9-9-9-9-9-9-9-9-9-9-9/-|


                                                                   
--------------------------------|---------------------------------|
--------------------------------|---------------------------------|
--------------------------------|---------------------------------|
--7-7-7-7-7-7-7/-4-4-4-4-4-4-4/-|--9-9-9-9-9-9-9-9-9-9-9-9-9-9-9/-|


                                                                
--------------------------------|------------------------------|
--------------------------------|------------------------------|
--------------------------------|--7-7-7-7-7-7-7-7-7-7-7/3-----|
--7-7-7-7-7-7-7/-4-4-4-4-4-4-4--|------------------------------|


                                                              
------------------------------|------------------------------|
------------------------------|------------------------------|
--7-7-7-7-7-7-7-7-7-7-7/3-----|--7-7-7-7-7-7-7-7-7-7-7/3-----|
------------------------------|------------------------------|


                                                                            
------------------------------|---------------------|----------------------|
------------------------------|---------------------|----------------------|
--7-7-7-7-7-7-7-7-7-7-7/3-----|---------------------|-----------11---------|
------------------------------|--9--------7----9----|--9--------------9----|


                                                                 
---------------------|---------------------|--------------------|
---------------------|---------------------|--------------------|
---------------------|-----------9---------|--------------------|
--9--------7----9----|--9-------------9----|--4--------9--------|

[ Tab from: http://www.guitartabs.cc/tabs/b/blind_guardian/time_stands_still_btab.html ]
                                                               
--------------------|--------------------|--------------------|
--------------------|--------------------|--------------------|
--------------------|--------------------|--------------------|
--2--------4--------|--7--------9--------|--2--------4--------|


                                                               
--------------------|--------------------|--------------------|
--------------------|--------------------|--------------------|
--------------------|--------------------|--------------------|
--4--------9--------|--2--------4--------|--7--------9--------|


                                                                   
--------------------|----------------------|----------------------|
--------------------|----------------------|----------------------|
--------------------|----------------------|----------------------|
--2--------4--------|--9------9--9----9----|--9------9--9----9----|


                                                                       
----------------------|----------------------|------------------------|
----------------------|----------------------|--7-7-7-7-7/-9-9-9-9-9/-|
----------------------|----------------------|------------------------|
--9------9--9----9----|--9------9--9----9----|------------------------|


                                                                              
--------------------------|-----------------------|--------------------------|
--------------------------|-----------------------|--------------------------|
--------------------------|--------------------7--|--------------------------|
--9-9-9-9-9-9-9-9-9-9-9-9-|--9-9-9-9-9-9-9/-7-----|--9-9-9-9-9-9-9-9-9-9-9-9-|


                                                                               
-----------------------|------------------------------|-----------------------|
-----------------------|------------------------------|-----------------------|
--------------------7--|------------------------------|--7-7-7----7-7-----7-7-|
--9-9-9-9-9-9-9/-7-----|--10-10-10----10-10-7-7-10-10-|---------------7-7-----|


                                                                              
------------------------------|-----------------------|----------------------|
------------------------------|-----------------------|----------------------|
------------------------------|--7-7-7----7-7-----7-7-|--4--4-4-4------------|
--10-10-10----10-10-7-7-10-10-|---------------7-7-----|------------4--4-4-4--|


                                                                  
----------------------|----------------------|-------------------|
----------------------|----------------------|--7--7-7-7---------|
--7--7-7-7------------|--9--9-9-9------------|-------------------|
------------7--7-7-7--|------------9--9-9-9--|------------7------|


                                                                      
-----------------------|---------------------|-----------------------|
-----------------------|---------------------|-----------------------|
--4-4-4-4-4-4-4--2--2--|--4-4-4-4-4-4-4------|--4-4-4-4-4-4-4--2--2--|
-----------------------|---------------------|-----------------------|


                                                                    
---------------------|-----------------------|---------------------|
---------------------|-----------------------|---------------------|
--4-4-4-4-4-4--------|--4-4-4-4-4-4-4--2--2--|--4-4-4-4-4-4-4------|
--------------2------|-----------------------|---------------------|


                                              
-----------------------|---------------------|
-----------------------|---------------------|
--4-4-4-4-4-4-4--2--2--|--4-4-4-4-4-4--------|
-----------------------|--------------2------|


                                        
---------------------------------------|
---------------------------------------|
--4---4-4-4-4---4-4-4-4---4-4-4-4---2--|
---------------------------------------|


                                           
------------------------------------------|
------------------------------------------|
--4---4-4-4-4---4-4-4-4---4-4-4-4---4-4-4-|
------------------------------------------|


                                        
---------------------------------------|
---------------------------------------|
--4---4-4-4-4---4-4-4-4---4-4-4-4---2--|
---------------------------------------|


                                                                          
------------------------------------------|------------------------------|
------------------------------------------|------------------------------|
--4---4-4-4-4---4-4-4-4---4-4-4-4---4-4-4-|--7-7-7-7-7-7-7-7-7-7-7/3-----|
------------------------------------------|------------------------------|


                                                              
------------------------------|------------------------------|
------------------------------|------------------------------|
--7-7-7-7-7-7-7-7-7-7-7/3-----|--7-7-7-7-7-7-7-7-7-7-7/3-----|
------------------------------|------------------------------|


                                                                            
------------------------------|---------------------|----------------------|
------------------------------|---------------------|----------------------|
--7-7-7-7-7-7-7-7-7-7-7/3-----|---------------------|-----------11---------|
------------------------------|--9--------7----9----|--9--------------9----|


                                                                 
---------------------|---------------------|--------------------|
---------------------|---------------------|--------------------|
---------------------|-----------9---------|--------------------|
--9--------7----9----|--9-------------9----|--4--------9--------|


                                                               
--------------------|--------------------|--------------------|
--------------------|--------------------|--------------------|
--------------------|--------------------|--------------------|
--2--------4--------|--7--------9--------|--2--------4--------|


                                                               
--------------------|--------------------|--------------------|
--------------------|--------------------|--------------------|
--------------------|--------------------|--------------------|
--4--------9--------|--2--------4--------|--7--------9--------|


                                                               
--------------------|--------------------|--------------------|
--------------------|--------------------|--------------------|
--------------------|-----------6--6--6--|-----------4--4--4--|
--2--------4--------|--4--4--4-----------|--2--2--2-----------|


                                                               
--------------------|--------------------|--------------------|
--------------------|--------------------|--------------------|
-----------6--6--6--|-----------4--4--4--|-----------6--6--6--|
--4--4--4-----------|--2--2--2-----------|--4--4--4-----------|


                                                                                
--------------------|--------------------|--------------------|----------------|
--------------------|--------------------|--------------------|----------------|
-----------4--4--4--|-----------6--6--6--|-----------4--4--4--|--2-------------|
--2--2--2-----------|--4--4--4-----------|--2--2--2-----------|---------2------|


                                                                  
---------------|----------------|---------------|----------------|
---------------|----------------|---------------|----------------|
---------------|--2-------------|---------------|--2-------------|
--4------------|---------2------|--4------------|---------2------|


                                                                 
---------------|----------------|---------------|--------------||
---------------|----------------|---------------|--------------||
---------------|--2-------------|---------------|--------------||
--4------------|---------2------|--4------------|--------------||
Comments