Blind Guardian - The Curse Of Feanor Chords & Tabs

 

The Curse Of Feanor Chords & Tabs

Blind Guardian Chords & Tabs

Version: 1 Type: Tab 0 ratings
1 star 2 stars 3 stars 4 stars 5 stars
comments

The Curse Of Feanor Tab

   
****************************************
Band: Blind Guardian
Song: The Curse of Feanor
Album: Nightfall in Middle-Earth
Transcribed by: Siddhartha Barnhoorn
Email: jedisidbarn@yahoo.com
Website: http://www.members.tripod.com/jedisidbarn/
****************************************
Notation:
****************************************
b   =  Bend
bfr =  Bend full and release
x   =  Fret-hand muting
.   =  Pick-hand muting
h   =  Hammer-on
p   =  Pull-off
~   =  Vibrato
t   =  Tap-on
/   =  Slide up
\   =  Slide down
A.h =  Artificial Harmonics
N.H =  Natural Harmonics
P.M =  Palm Muting
(9) =  Ghost note
"   =  Trem picking
****************************************
INTRO:
****************************************
|----9-8--------------------8------|
|-10-----10p9-9-9-9-9-9-9-9---10p7-|
|----------------------------------|
|----------------------------------|
|----------------------------------|
|----------------------------------|
					    2X
|----------------9-8------|--------7-9-7------|-9-11~-|
|-9-9-9-9-10p9p7-----10-9-|-7-9-10-------10-9-|-------|
|-------------------------|-------------------|-------|
|-------------------------|-------------------|-------|
|-------------------------|-------------------|-------|
|-------------------------|-------------------|-------|

					    2X
|----------------9-8------|--------8-9-8------|-------|
|-9-9-9-9-10p9p7-----10-9-|-10-9-7-------10-9-|-10-9~-|
|-------------------------|-------------------|-------|
|-------------------------|-------------------|-------|
|-------------------------|-------------------|-------|
|-------------------------|-------------------|-------|
****************************************
Verse 1:
****************************************
Riff 1:							        2X          first             second
|------------------------------------Fill-------------------------|--------------|------------------|
|------------------------------------\--/-------------------------|--------------|------------------|
|-----------------------8h9----------11-9-------------------------|-8h9p8-8-11-9-|-9--8-9-8---------|
|-9h11----9h11----9h11--------9h11----------9h11-----9h11---9h11--|--------------|----------9-11----|
|-----------------------------------------------------------------|--------------|---------------11-|
|-----------------------------------------------------------------|--------------|------------------|
Rhythm 1:
|-----------------------------------------------------------------|--------------|------------------|
|-----------------------------------------------------------------|--------------|------------------|
|-----------------------------------------------------------------|--------------|------------------|
|-----------------------------------------------------------------|--------------|------------------|
|-4-4-4-4-4-4-4-4-4-4-4-4-4-4-4-4-4-4-4-4-4-4-4-4-4-4-4-4-4-4-4-4-|-4----6--7--2-|-4-----6-7------6-|
|-----------------------------------------------------------------|-2----4--5--0-|-2-----4-5------4-|
PM...............................................................

Riff 2:							        2X	    first	    second
|------------------------------------Fill-------------------------|--------------|----------------|
|------------------------------------\--/-------------------------|--------------|-------------12-|
|-----------------------8h9----------11-9-------------------------|-8h9p8-8-11-9-|-13-11----11----|
|-9h11----9h11----9h11--------9h11----------9h11-----9h11---9h11--|--------------|-------14-------|
|-----------------------------------------------------------------|--------------|----------------|
|-----------------------------------------------------------------|--------------|----------------|
Rhythm 2:
|-----------------------------------------------------------------|--------------|----------------|
|-----------------------------------------------------------------|--------------|----------------|
|-----------------------------------------------------------------|--------------|----------------|
|-----------------------------------------------------------------|--------------|-------4-2------|
|-4-4-4-4-4-4-4-4-4-4-4-4-4-4-4-4-4-4-4-4-4-4-4-4-4-4-4-4-4-4-4-4-|-4----6--7--2-|-6---4-2-0--6-6-|
|-----------------------------------------------------------------|-2----4--5--0-|-4---2------4-4-|
PM...............................................................

Fill: (Use this for the second time)
|-----|
|-----|
|-8-9-|
|-----|
|-----|
|-----|
****************************************
Verse 2:
****************************************
	                              2X
|---------------------------------------|
|---------------------------------------|
|---------------------------------------|
|-----------4---------------------------|
|-6---4-2---2---6-4---6---4-2-----------|
|-4---2-0-------4-2---4---2-0---0---0-0-|
****************************************
Chorus 1:
****************************************
|---------------------------------------------------------------------------------------------|
|-------------------------------------------------------------------11-12---11h12p11----11----|
|-13---11-------------------------------------13---11---------11-13------------------13----11-|
|---------14---13h14p13p11------13-14-13-11-----------14--14----------------------------------|
|---------------------------11----------------------------------------------------------------|
|---------------------------------------------------------------------------------------------|

|----------------------------------------------------------------------------------|
|--------------------------------11-12---14------11-12------------11-12---14bf-14~-|
|----11------13-11---------11-13--------------13------------11-13------------------|
|-13----14---------14---14-------------------------------14------------------------|
|----------------------------------------------------------------------------------|
|----------------------------------------------------------------------------------|
****************************************
Solo 1:
****************************************
|----------------|-18-16-15----15-------------------------------------------------16-18-|
|----------------|----------18----18-16----------18-16----16-------------------18-------|
|-13bf-13bf-13bf-|----------------------15-18~---------18----18-15----15-15-18----------|
|----------------|-------------------------------------------------18-------------------|
|----------------|----------------------------------------------------------------------|
|----------------|----------------------------------------------------------------------|
							  2X			 first			     second
|-18-16-15----15--------------|-----------------------------|-------------------------|----------------20b(21)-20~-|
|----------18----18-16--------|-18-16h18p16p14-------18-14~-|----18-20-18-20b(21)-20~-|-20b(21)r-18----------------|
|----------------------15-18~-|-------------------18--------|-18----------------------|-------------18-------------|
|-----------------------------|----------------15-----------|-------------------------|----------------------------|
|-----------------------------|-----------------------------|-------------------------|----------------------------|
|-----------------------------|-----------------------------|-------------------------|----------------------------|
****************************************
Verse 3:
****************************************
|----------------------------------------------------------|
|------------11---------------------------------A.H--------|
|------12-13----13-12h13p12p10---------------10-12b(13)-10-|
|-10---------------------------12----10---13---------------|
|---------------------------------13-----------------------|
|----------------------------------------------------------|

|-----------------------------------------------|
|------------11------------------------11bf-11~-|
|------12-13----13-12-10---------12-13----------|
|-10---------------------12-10------------------|
|-----------------------------------------------|
|-----------------------------------------------|

Riff 3:							        2X	    first	   second
|------------------------------------Fill-------------------------|--------------|---------------|
|------------------------------------\--/-------------------------|--------------|---------------|
|-----------------------8h9----------11-9-------------------------|-8h9p8-8-11-9-|-------13b(14)-|
|-9h11----9h11----9h11--------9h11----------9h11-----9h11---9h11--|--------------|-11-14---------|
|-----------------------------------------------------------------|--------------|---------------|
|-----------------------------------------------------------------|--------------|---------------|
Rhythm 3:
|-----------------------------------------------------------------|--------------|---------------|
|-----------------------------------------------------------------|--------------|---------------|
|-----------------------------------------------------------------|--------------|---------------|
|-----------------------------------------------------------------|--------------|---------------|
|-4-4-4-4-4-4-4-4-4-4-4-4-4-4-4-4-4-4-4-4-4-4-4-4-4-4-4-4-4-4-4-4-|-4----6--7--2-|-2----4--6--7--|
|-----------------------------------------------------------------|-2----4--5--0-|-0----2--4--5--|
PM...............................................................

Fill: (Use this for the second time)
|-----|
|-----|
|-8-9-|
|-----|
|-----|
|-----|
****************************************
Chorus 2:
****************************************
|---------------------|
|---------------------|
|---------------------|
|-6---8-9---9---------|
|-4---6-7---7-6---6-4-|
|-------------4---4-2-|

|-----|-------------------------------------------------------------------11-------|
|-14~-|-----11-12------------11-12---11----11--------------------11-12-14------14~-|
|-----|-13-------------11-13------------13----11------11-13---13-------------------|
|-----|-------------14-----------------------------13------------------------------|
|-----|----------------------------------------------------------------------------|
|-----|----------------------------------------------------------------------------|
[ Tab from: http://www.guitartabs.cc/tabs/b/blind_guardian/the_curse_of_feanor_tab.html ]
|---------------------------------------|
|----------------------11-12---14bf-14~-|
|-13--11---------11-13------------------|
|--------14---14------------------------|
|---------------------------------------|
|---------------------------------------|
****************************************
Solo 2:
****************************************
		      2X  end
|------------------------|---|
|------------------------|---|
|------------------------|---|
|------------------------|---|
|-6-7-6---------6-7-6--9-|-4-|
|-4-5-4-4-4-4-4-4-5-4--7-|-2-|
PM      .......
			     2X                  first			     second
|-A.H---|----------------------|----------------------|----------------12b(13)-12~-|
|-13bfr-|-14h15p14p12h14-12----|----------------------|-14h15p14p12h14-------------|
|-------|-------------------14-|-13h14p13p11h13-11-10-|----------------------------|
|-------|----------------------|----------------------|----------------------------|
|-------|----------------------|----------------------|----------------------------|
|-------|----------------------|----------------------|----------------------------|
****************************************
Verse 4:
****************************************
		        8X
|-------------------------|
|-------------------------|
|-------------------------|
|-------------------------|
|-6-6---6-6---6-6-6-6-7-4-|
|-------------------------|
PM...   ...   ...........

|-----------------------------------------------|
|-----------------------------------------------|
|-----------------------------------------------|
|-----------------------------------------------|
|---------------------------------------------8-|
|-6-6-6-6-6-6-6-6-6-6-6-6-6-7---h9(11)r-(9)---6-|
PM.........................

|------------------------------------------|
|------------------------------------------|
|------------------------------------------|
|------------------------------------------|
|------------------------6--6-6-6--9-9-----|
|-6--6--6--6--6--6-6-6-6---------------7-6-|
PM.  .  .  .  .  ....... .  .....  . .

Riff 4:						          2X          first             second
|------------------------------\----Fill----/---------------|--------------|------------------|
|------------------------------9-10-------------------------|---------10-9-|------------------|
|-----------------8h9---------------11-8--------------------|-11-9-11------|------------------|
|-9h11----9h11----------9h11-------------9-----9h11---9h11--|--------------|------------------|
|------------------------------------------11---------------|--------------|------------------|
|-----------------------------------------------------------|--------------|------------------|
Rhythm 4:
|-----------------------------------------------------------|--------------|------------------|
|-----------------------------------------------------------|--------------|------------------|
|-----------------------------------------------------------|--------------|------------------|
|-----------------------------------------------------------|--------------|------------------|
|-4-4-4-4-4-4-4---------4-4-4-4-4-4---------4-4-4-4-4-4-4---|-4----6-7---6-|-4-----6---7----6-|
|---------------4-4-4-4-------------4-4-4-4---------------4-|-2----4-5---4-|-2-----4---5----4-|
PM........................................................

Fill:
|-------------------|
|------10-9---------|
|-9h11------9-------|
|-------------11----|
|----------------11-|
|-------------------|
****************************************
Solo 3:
****************************************
            4X                     first                    second                     third             fourth              
|-------------|-------------------------|-------------------------|-------------------------|-------------21-20-|
|-14h16-16-16-|-16-14----14-------------|-------------14-13-------|-14-13-14-13-------------|----16-17-19-------|
|-------------|-------16----16-13----13-|-14-13----13-------14-13-|-------------14-13----13-|-18----------------|
|-------------|-------------------16----|-------16----------------|-------------------16----|-------------------|
|-------------|-------------------------|-------------------------|-------------------------|-------------------|
|-------------|-------------------------|-------------------------|-------------------------|-------------------|
						   A.h
|------------------------------------------|-12----14bf-|-12-14bf-14~-|
|-12-14-16-14---14-16-14-12-14-12----14-12-|----14------|-------------|
|---------------------------------15-------|------------|-------------|
|------------------------------------------|------------|-------------|
|------------------------------------------|------------|-------------|
|------------------------------------------|------------|-------------|
  A.h
|-13\-|-13-11-----------------------------------------------------------------------------------------|
|-----|-------14-13-14-13-11-----------------------------------14-13h14p13p11-----------11-13b(14)-13-|
|-----|----------------------13---10------------------------13----------------13-11--13---------------|
|-----|------------------------------13-11-10-11-10---------------------------------------------------|
|-----|---------------------------------------------13-11---------------------------------------------|
|-----|-----------------------------------------------------------------------------------------------|
				      A.h.    A.h
|-12-11----------------11-12-14-16-17-11b(12)-11~-|----------------------------------------------11-|
|-------14-12----12-14----------------------------|-------------------12-14----------------12-14----|
|-------------14----------------------------------|----------11-13-14-------------11-13-14----------|
|-------------------------------------------------|-11-13-14----------------13-14-------------------|
|-------------------------------------------------|-------------------------------------------------|
|-------------------------------------------------|-------------------------------------------------|
					          A.h
|----------------11-12-14-------11-12-14-16-17-19-19bf-|
|----------12-14----------13-14------------------------|
|-11-13-14---------------------------------------------|
|------------------------------------------------------|
|------------------------------------------------------|
|------------------------------------------------------|
			    2X			   first	               second
|-----------------------------|-------------------------|----------------20b(21)-20~-|
|-18-16h18p16p14-------18-14~-|----18-20-18-20b(21)-20~-|-20b(21)r-18----------------|
|-------------------18--------|-18----------------------|-------------18-------------|
|----------------15-----------|-------------------------|----------------------------|
|-----------------------------|-------------------------|----------------------------|
|-----------------------------|-------------------------|----------------------------|
****************************************
Verse 5:
****************************************
|----------------------------------------------------------|
|------------11---------------------------------A.H--------|
|------12-13----13-12h13p12p10---------------10-12b(13)-10-|
|-10---------------------------12----10---13---------------|
|---------------------------------13-----------------------|
|----------------------------------------------------------|

|-----------------------------------------------|
|------------11------------------------11bf-11~-|
|------12-13----13-12-10---------12-13----------|
|-10---------------------12-10------------------|
|-----------------------------------------------|
|-----------------------------------------------|
****************************************
Chorus 3:
****************************************
|---------------------|
|---------------------|
|---------------------|
|-6---8-9---9---------|
|-4---6-7---7-6---6-4-|
|-------------4---4-2-|

|-----|-------------------------------------------------|
|-14~-|-----------------------11-12---11h12p11----11----|
|-----|-13---11---------11-13------------------13----11-|
|-----|---------14--14----------------------------------|
|-----|-------------------------------------------------|
|-----|-------------------------------------------------|

|----------------------------------------------------------------------------------|
|--------------------------------11-12---14------11-12------------11-12---14bf-14~-|
|----11------13-11---------11-13--------------13------------11-13------------------|
|-13----14---------14---14-------------------------------14------------------------|
|----------------------------------------------------------------------------------|
|----------------------------------------------------------------------------------|
****************************************
Outro:
****************************************
		         8X  1st 2nd
|---------------------------|---|---|---------------|
|---------------------------|---|---|---------------|
|---------------------------|---|---|---------------|
|---------------------------|---|---|---------------|
|---------------------------|---|-2-|-4\-with ---6\-|
|-4-4-4-4-4---4--4--4--2--5-|-4-|---|-2\-wammy---4\-|
PM.........   .  .  .  .  .   .   .
****************************************
Lyrics:
****************************************
Verse 1:
****************************************
Taken the long way
Dark realms I went through
I arrived
My vision's so clear
In anger and pain
I left deep wounds behind
But I arrived
Truth might be changed by victory
****************************************
Verse 2:
****************************************
Beyond the void but deep within me
A swamp of filth exists
A lake it was of crystal beauty
But Arda's spring went by
I've heard the warning
Well curse my name
I'll keep on laughing
No regret
No regret
****************************************
Chorus 1:
****************************************
Don't fear the eyes of the dark lord
Morgoth I cried
All hope is gone but I swear revenge
Hear my oath
I will take part in your damned fate
****************************************
Solo 1:
|
Verse 3:
****************************************
I will always remember their cries
Like a shadow which covers the light
I will always remember the time
But it's past
I cannot turn back the time
(I) don't look back
There's still smoke near the shore
But I arrived
Revenge be mine
****************************************
Chorus 2:
****************************************
I will take part in your damned fate
Morgoth I cried
It's my oath
So don't fear the eyes
Of the dark lord
****************************************
Solo 2:
|
Verse 4:
****************************************
Soon you will be free
Set your spirit free
"Suddenly I realized
The prophecies
I've never believed in
My deeds were wrong
I've stained the land
And slain my kin
(Burning Soul)
There's no release from my sins
It hurts
THE CURSE OF F╦ANOR RUNS LONG
Time and only time will tell us
Tell: was I right or wrong?
When anger breaks through
I'll leave mercy behind"
****************************************
Chorus 2
|
Solo 3
|
Verse 5:
****************************************
I will always remember their cries
Like a shadow they'll cover my life
But I'll also remember mine
(And) after all I'm still alive
|
Chorus 3
|
Outro
****************************************
THE END
****************************************
Comments