Blind Guardian - The Bard's Song Chords & Tabs

 

The Bard's Song Chords & Tabs

Blind Guardian Chords & Tabs

Version: 1 Type: Bass Tab 0 ratings
1 star 2 stars 3 stars 4 stars 5 stars
comments

The Bard's Song Bass Tab

It's a short song, what can I say? ;)

G||--------------|--------------|--------------|--------------|--------------|
D||--------------|--------------|--------------|--------------|--------------|
A||--------------|--------------|--------------|--------------|--------------|
E||--------------|--------------|--------------|--------------|--------------|

                                                                          

                                                                 
----0------2----|----------2----|----------2----|---------------|
----------------|---------------|---------------|----------3----|
----------------|---------------|---------------|---------------|
----------------|---------------|---------------|---------------|


                                                                     
------0----------|---------------|-------------0----|----2----------|
--3-3------------|----------3----|--3-3-4-----------|---------------|
-----------------|---------------|------------------|---------------|
-----------------|---------------|------------------|---------------|

[ Tab from: http://www.guitartabs.cc/tabs/b/blind_guardian/the_bards_song_btab.html ]
                                                                              
----2----------|----2----------|---------------|--------------|--------------|
---------------|---------------|----3----------|--------------|--------------|
---------------|---------------|---------------|--------------|--------------|
---------------|---------------|---------------|--------------|--------------|

                                                                           


                                                                 
----0------2----|----------2----|----------2----|---------------|
----------------|---------------|---------------|----------3----|
----------------|---------------|---------------|---------------|
----------------|---------------|---------------|---------------|


                                                                     
------0----------|---------------|-------------0----|----2----------|
--3-3------------|----------3----|--3-3-4-----------|---------------|
-----------------|---------------|------------------|---------------|
-----------------|---------------|------------------|---------------|


                                                                  
----2----------|----2----------|------------------|--------------|
---------------|---------------|----3----3-3-4----|--------------|
---------------|---------------|------------------|--------------|
---------------|---------------|------------------|--------------|


                                                                               
------------------|--------------|--------------|--------------|--------------|
----3----3-3-4----|--------------|--------------|--------------|--------------|
------------------|--------------|--------------|--------------|--------------|
------------------|--------------|--------------|--------------|--------------|
Comments