Blind Guardian - Spread Your Wings Chords & Tabs

 

Spread Your Wings Chords & Tabs

Blind Guardian Chords & Tabs

Version: 1 Type: Bass Tab 0 ratings
1 star 2 stars 3 stars 4 stars 5 stars
comments

Spread Your Wings Bass Tab

G||------------------|------------------|------------------|------------------|
D||------------------|------------------|------------------|------------------|
A||------------------|------------------|------------------|------------------|
E||------------------|------------------|------------------|------------------|


                                                                               
------------------|------------------|------------------|--4------4------2----|
------------------|------------------|------------------|---------------------|
------------------|------------------|------------------|---------------------|
------------------|------------------|------------------|---------------------|


                                                               
--1------1----------|--------------------|--------------------|
--------------------|--------------------|--0------0----------|
--------------------|---------0----------|--------------------|
--------------------|--3-----------------|--------------------|


                                                                     
-------4--9------9-9-7--|--5-----------------|-----2--7-------------|
--2---------------------|--------------------|--0-------------------|
------------------------|---------3----------|-----------7----------|
------------------------|--------------------|----------------------|


                                                                     
--0--------------------|-------------------|----------2-7--7--------|
-----0-----------------|--0----------------|--0---------------7--0--|
--------1--------------|-------------------|------------------------|
-----------3--3--------|-------------------|------------------------|


                                                                              
-------------4----4-------|----------9---------9--|--------------------------|
--------------------4---4-|--2----2----------9----|--7-----7--7----------0---|
----------------------2---|-----------------------|------0-----------0-------|
--7----7--7---------------|-----------------------|--------------------7---7-|


                                                      
----------2--7-----7------|-------------4----4-------|
--0----0---------7--------|----------4---------4-2-4-|
----------------------0---|--------------------------|
------------------------6-|--7----7------------------|


                                                                           
-------4-9--9-----9--9-9----|-------------2--2--2----|--0------------7----|
--2--2----------9--------9--|----------2-------------|--------------------|
----------------------------|--0----0----------------|--------------------|
----------------------------|------------------------|--------------------|


                                                                               
--------------14----|------------------|--7----------------|------------------|
--------------------|------------------|-------------------|------------------|
--------------------|------------------|-------------------|------------------|
--------------------|------------------|-------------------|------------------|


                                                                 
------------------|----------------------|----------------------|
------------------|----------------------|----------------------|
------------------|--2------2--2----0----|----------------------|
------------------|----------------------|--4------4--4----4----|


                                                                             
-------------------------|---------------------------|----------------------|
--------------2----------|-----------2-4----2-4------|----------------------|
--0------0--0---4-0-0----|---------4------4----------|--2------2--2----0----|
-------------------------|--2--------------------2-2-|----------------------|


                                                                          
----------------------|------------------------|-------------------------|
----------------------|-----------------2------|-----------2-4----2-4----|
----------------------|--0------0--0------4-0--|---------4------4--------|
--4------4--4----4----|------------------------|--2----------------------|


                                                                                
------------------------|-------------15---15-15----|--16---16-16----16--------|
------------------------|--0---0-0------------------|--------------------------|
-------------0---0-0----|---------------------------|--------------------------|
--3---3-3---------------|---------------------------|--------------------------|


                                                                 
--------------------|-------------------|-------4--9----------0-|
--------------------|--0----------------|--2----------------9---|
--------------------|-------------------|-----------------------|
--17----------------|-------------------|-----------------------|


                                                                 
----------0-----------|--------------------|--------------------|
-------0--------------|--0--------------0--|--0------0----------|
-------------------0--|--------------------|--------------------|
--3-------------------|--------------------|--------------------|


                                                                      
-----4--9--9-----------|----------0------3-0---|-------2--7----------|
--2-----------------9--|-------0---------------|--0------------------|
-----------------------|-----------------------|---------------------|
-----------------------|--3--------------------|---------------------|

[ Tab from: http://www.guitartabs.cc/tabs/b/blind_guardian/spread_your_wings_btab.html ]
                                                                
--4------4------2----|--1------1----------|--------------------|
---------------------|--------------------|--------------------|
---------------------|--------------------|---------0----------|
---------------------|--------------------|--3-----------------|


                                                                   
--------------------|-------4--9------9-9-7--|--5-----------------|
--0------0----------|--2---------------------|--------------------|
--------------------|------------------------|---------3----------|
--------------------|------------------------|--------------------|


                                                                   
-----2--7-------------|--0--------------------|-------------------|
--0-------------------|-----0-----------------|--0----------------|
-----------7----------|--------1--------------|-------------------|
----------------------|-----------3--3--------|-------------------|


                                                                            
----------2-7--7--------|-------------4----4-------|----------9---------9--|
--0---------------7--0--|--------------------4---4-|--2----2----------9----|
------------------------|----------------------2---|-----------------------|
------------------------|--7----7--7---------------|-----------------------|


                                                      
--------------------------|----------2--7-----7------|
--7-----7--7----------0---|--0----0---------7--------|
------0-----------0-------|----------------------0---|
--------------------7---7-|------------------------6-|


                                                        
-------------4----4-------|-------4-9--9-----9--9-9----|
----------4---------4-2-4-|--2--2----------9--------9--|
--------------------------|----------------------------|
--7----7------------------|----------------------------|


                                                                   
-------------2--2--2----|--0------------7----|--------------14----|
----------2-------------|--------------------|--------------------|
--0----0----------------|--------------------|--------------------|
------------------------|--------------------|--------------------|


                                                                             
------------------|--7----------------|------------------|------------------|
------------------|-------------------|------------------|------------------|
------------------|-------------------|------------------|------------------|
------------------|-------------------|------------------|------------------|


                                                                            
----------------------|---------------------|------------9----------9---9--|
--0----0--0--------0--|---------4-----------|--2--2-2-2-----9-9------------|
----------------------|--2---------2--------|-------------------7-7---7----|
----------------------|---------------------|------------------------------|


                                                   
----------2------------|-------2--7-------7-------|
-----------------------|--0------------7----7-4---|
--0----0-----0----4----|------------------------5-|
-----------------------|--------------------------|


                                                           
------------4-----4-4-4-------|-------4-9--9----9---------|
---------4------4-------4-0---|--2--2-------------9-------|
--2--2-2--------------------2-|---------------------7-7---|
------------------------------|---------------------------|


                                                                                
-----------------------|--7---------7------------|--------4--4---4-4-4-4-4-7-8-|
-----------------------|-------7------7-0--0--0--|------4----------------------|
-----------------------|-------------------------|--2--------------------------|
--5------5----5--5--5--|-------------------------|-----------------------------|


                                                           
--9-----9--9--9------11-11-9-7-|--------------------------|
----------------9--------------|--7-----------------------|
------7-----------7------------|--------------------------|
-------------------------------|------5-5--5--5--5--5--5--|


                                                          
---------------2-7---------|--------4--4---4-2-4-4-4-----|
-------------------7-0-----|-------------------------0-1-|
--5------5--5----------0-1-|--2---2----------------------|
---------------------------|-----------------------------|


                                                          
------4-9--9------------------|--------2--2--------------|
--2-----------------0-4-4-0---|--------------------------|
--------------9-9-7---------2-|--0---0-------0--0--0--0--|
------------------------------|--------------------------|


                                                           
----------------2-7---------|-----------4---4-4-4-4-------|
--0---0-0--0--------7-0-----|--------4--------------4-2-4-|
------------------------0-1-|--2---2----------------------|
----------------------------|-----------------------------|


                                                         
--------9--9--9------9-------|--------2--2----2-2-------|
--2---2---------9------9-----|--------------------------|
------------------7------7---|--------------------0--0--|
---------------------------7-|--5---5-------------------|


                                                                 
--------------------------|--------------------------|----|----||
--0---0-0--0--0--0--0--0--|--------------------------|----|----||
--------------------------|--2---2-2--2--2--2--2--2--|----|----||
--------------------------|--------------------------|----|----||
Comments