Blind Guardian - Soulforged Chords & Tabs

 

Soulforged Chords & Tabs

Blind Guardian Chords & Tabs

Version: 1 Type: Bass Tab 0 ratings
1 star 2 stars 3 stars 4 stars 5 stars
comments

Soulforged Bass Tab

G||---------------|------|-------------------------|
D||---------------|------|-------------------------|
A||--4-4-3--------|------|------3----4--4--4--3----|
E||---------------|------|-------------------------|


                                                               
------------------------------|------------------------|------|
------------------------------|------------------------|------|
--4--4--4--3----4--4--4--3----|--4--4--4--3------------|------|
------------------------------|------------------------|------|


                                                         
-------------------------|------------------------------|
-------------------------|------------------------------|
------3----4--4--4--3----|--4--4--4--3----4--4--4--3----|
-------------------------|------------------------------|

[ Tab from: http://www.guitartabs.cc/tabs/b/blind_guardian/soulforged_btab.html ]
                                                              
------------------------------|------------------------------|
------------------------------|------------------------------|
--4--4--4--3----4--4--4--3----|--4--4--4--3----4--4--4--3----|
------------------------------|------------------------------|


                                                                    
---------------------|----------------------|----------------------|
---------------------|----------------------|----------------------|
------3----3----1----|--3----1----3----1----|-------3----3----1----|
---------------------|----------------------|--3-------------------|


                                                                                
----------------------|-------|------|------|------|------|------|------|------|
----------------------|-------|------|------|------|------|------|------|------|
--3----1----3----1----|--3----|------|------|------|------|------|------|------|
----------------------|-------|------|------|------|------|------|------|------|
Comments