Blind Guardian - Run For The Night Chords & Tabs

 

Run For The Night Chords & Tabs

Blind Guardian Chords & Tabs

Version: 1 Type: Bass Tab 0 ratings
1 star 2 stars 3 stars 4 stars 5 stars
comments

Run For The Night Bass Tab

G||------|-------------------------|-------------------|
D||------|-------------------------|-------------------|
A||------|----------7----5----7----|--5----------------|
E||------|-------------------------|-------------------|


                                                                        
-------------------------|-------------------|-------------------------|
-------------------------|-------------------|-------------------------|
----------7----5----7----|--5----------------|----------7----5----7----|
-------------------------|-------------------|-------------------------|


                                                                  
-------------------|-------------------------|-------------------|
-------------------|-------------------------|-------------------|
--5----------------|----------7----5----7----|--5----------------|
-------------------|-------------------------|-------------------|


                                                                        
-------------------------|-------------------|-------------------------|
-------------------------|-------------------|-------------------------|
----------7----5----7----|--5----------------|----------7----5----7----|
-------------------------|-------------------|-------------------------|


                                                                       
-----------------------|-----------------------|----------------------|
-----------------------|-----------------------|----------------------|
--7----7----7----7--5--|--3----3----3----3--2--|--0----0----0----0----|
-----------------------|-----------------------|----------------------|


                                                                         
------------------------|-----------------------|-----------------------|
------------------------|-----------------------|-----------------------|
------------------------|--7----7----7----7--5--|--3----3----3----3--2--|
--3---2---3--5---3---2--|-----------------------|-----------------------|


                                                                        
----------------------|------------------------|-----------------------|
----------------------|------------------------|-----------------------|
--0----0----0----0----|------------------------|--4----4----4----4--2--|
----------------------|--3---2---3--5---3---2--|-----------------------|


                                                                       
----------------------|----------------------|------------------------|
----------------------|----------------------|------1--------------1--|
--0----0----0----0----|--4----4----4----4----|------------------------|
----------------------|----------------------|--0-------0--2---0------|


                                                                      
-----------------------|----------------------|----------------------|
-----------------------|----------------------|----------------------|
--4----4----4----4--2--|--0----0----0----0----|--4----4----4----4----|
-----------------------|----------------------|----------------------|


                                                                         
------------------------|-----------------------|-----------------------|
------1--------------1--|-----------------------|-----------------------|
------------------------|--7----7----7----7--5--|--3----3----3----3--2--|
--0-------0--2---0------|-----------------------|-----------------------|


                                                                       
----------------------|------------------------|----------------------|
----------------------|------------------------|----------------------|
--0----0----0----0----|-------------0----------|--7----7----7----7----|
----------------------|--3---2---3------3---2--|----------------------|


                                                                     
----------------------|----------------------|----------------------|
----------------------|----------------------|----------------------|
--5----5----5----5----|--3----3----3----3----|--3----3--------------|
----------------------|----------------------|------------3----2----|


                                                                     
----------------------|----------------------|----------------------|
----------------------|----------------------|----------------------|
--7----7----7----7----|--5----5----5----5----|--3----3----3----3----|
----------------------|----------------------|----------------------|


                                                                     
----------------------|-------------------|-------------------------|
----------------------|-------------------|-------------------------|
--3----3--------------|--5----------------|----------7----5----7----|
------------3----2----|-------------------|-------------------------|


                                                                      
-------------------|-------------------------|-----------------------|
-------------------|-------------------------|-----------------------|
--5----------------|----------7----5----7----|--7----7----7----7--5--|
-------------------|-------------------------|-----------------------|


                                                                        
-----------------------|----------------------|------------------------|
-----------------------|----------------------|------------------------|
--3----3----3----3--2--|--0----0----0----0----|------------------------|
-----------------------|----------------------|--3---2---3--5---3---2--|


                                                                       
-----------------------|-----------------------|----------------------|
-----------------------|-----------------------|----------------------|
--7----7----7----7--5--|--3----3----3----3--2--|--0----0----0----0----|
-----------------------|-----------------------|----------------------|


                                                                        
------------------------|-----------------------|----------------------|
------------------------|-----------------------|----------------------|
------------------------|--4----4----4----4--2--|--0----0----0----0----|
--3---2---3--5---3---2--|-----------------------|----------------------|


                                                                        
----------------------|------------------------|-----------------------|
----------------------|------1--------------1--|-----------------------|
--4----4----4----4----|------------------------|--4----4----4----4--2--|
----------------------|--0-------0--2---0------|-----------------------|


                                                                       
----------------------|----------------------|------------------------|
----------------------|----------------------|------1--------------1--|
--0----0----0----0----|--4----4----4----4----|------------------------|
----------------------|----------------------|--0-------0--2---0------|


                                                                       
-----------------------|-----------------------|----------------------|
-----------------------|-----------------------|----------------------|
--7----7----7----7--5--|--3----3----3----3--2--|--0----0----0----0----|
-----------------------|-----------------------|----------------------|


                                                                       
------------------------|----------------------|----------------------|
------------------------|----------------------|----------------------|
-------------0----------|--7----7----7----7----|--5----5----5----5----|
--3---2---3------3---2--|----------------------|----------------------|


                                                                     
----------------------|----------------------|----------------------|
----------------------|----------------------|----------------------|
--3----3----3----3----|--3----3--------------|--7----7----7----7----|
----------------------|------------3----2----|----------------------|


                                                                     
----------------------|----------------------|----------------------|
----------------------|----------------------|----------------------|
--5----5----5----5----|--3----3----3----3----|--3----3--------------|
----------------------|----------------------|------------3----2----|

[ Tab from: http://www.guitartabs.cc/tabs/b/blind_guardian/run_for_the_night_btab.html ]
                                                                        
-----------------------|-----------------------|-----------------------|
-----------------------|-----------------5--4--|-----------------------|
--3----3----3----2--3--|--5----5----5----------|--3----3----3----2--3--|
-----------------------|-----------------------|-----------------------|


                                                                       
----------------------|-----------------------|-----------------------|
------------5----4----|-----------------------|-----------------5--4--|
--5----5--------------|--3----3----3----2--3--|--5----5----5----------|
----------------------|-----------------------|-----------------------|


                                                                       
-----------------------|----------------------|-----------------------|
-----------------------|------------5----4----|-----------------------|
--3----3----3----2--3--|--5----5--------------|--3----3----3----2--3--|
-----------------------|----------------------|-----------------------|


                                                                       
-----------------------|-----------------------|----------------------|
-----------------5--4--|-----------------------|------------5----4----|
--5----5----5----------|--3----3----3----2--3--|--5----5--------------|
-----------------------|-----------------------|----------------------|


                                                        
---------------------------|---------------------------|
---------------------------|---------------------------|
------------7----6----7----|---------------------------|
--0----0-------------------|--3----3----5----3----2----|


                                                                               
---------------------------|----------------------|---------------------------|
---------------------------|----------------------|---------------------------|
------------7----6----7----|--3----3----2----5----|------------7----6----7----|
--0----0-------------------|----------------------|--0----0-------------------|


                                                                               
---------------------------|---------------------------|----------------------|
---------------------------|---------------------------|----------------------|
---------------------------|------------7----6----7----|--3----3----2----5----|
--3----3----5----3----2----|--0----0-------------------|----------------------|


                                                      
--------------------------|--------------------------|
--------------------------|--------------------------|
--7--------7----6----7----|--------------------------|
--------------------------|--3--------5----3----2----|


                                                                      
--------------------------|----------------------|-------------------|
--------------------------|----------------------|-------------------|
--7--------7----6----7----|--3----3----2----5----|-------------------|
--------------------------|----------------------|--0----------------|


                                                           
------------------|-------------------|-------------------|
------------------|-------------------|-------------------|
------------------|--3----------------|--5----------------|
------------------|-------------------|-------------------|


                                                                           
----------------------|----------------------------|----------------------|
----------------------|----------------------------|----------------------|
--7----7----7----7----|--7----7----10----7----5----|--7----7----7----7----|
----------------------|----------------------------|----------------------|


                                                                              
------------------------------|----------------------|-----------------------|
------------------------------|----------------------|-----------------------|
--7----7----10----10----10----|--7----7----7----7----|--7----7----10----5----|
------------------------------|----------------------|-----------------------|


                                                                     
----------------------|----------------------|----------------------|
----------------------|----------------------|----------------------|
--7----7----7----7----|--5----5----5----5----|--7----7----7----7----|
----------------------|----------------------|----------------------|


                                                                     
----------------------|----------------------|----------------------|
----------------------|----------------------|----------------------|
--5----5----5----5----|--3----3----3----3----|--3----3----3----3----|
----------------------|----------------------|----------------------|


                                                                     
----------------------|----------------------|----------------------|
----------------------|----------------------|----------------------|
--7----7----7----7----|--5----5----5----5----|--3----3----3----3----|
----------------------|----------------------|----------------------|


                                                                     
----------------------|----------------------|----------------------|
----------------------|----------------------|----------------------|
--3----3--------------|--7----7----7----7----|--5----5----5----5----|
------------3----2----|----------------------|----------------------|


                                                                     
----------------------|----------------------|----------------------|
----------------------|----------------------|----------------------|
--3----3----3----3----|--5----5----5----5----|--7----7----7----7----|
----------------------|----------------------|----------------------|


                                                                     
----------------------|----------------------|----------------------|
----------------------|----------------------|----------------------|
--5----5----5----5----|--3----3----3----3----|--3----3--------------|
----------------------|----------------------|------------3----2----|


                                                                     
----------------------|----------------------|----------------------|
----------------------|----------------------|----------------------|
--7----7----7----7----|--5----5----5----5----|--3----3----3----3----|
----------------------|----------------------|----------------------|


                                                                     
----------------------|----------------------|----------------------|
----------------------|----------------------|----------------------|
--3----3--------------|--7----7----7----7----|--5----5----5----5----|
------------3----2----|----------------------|----------------------|


                                                                     
----------------------|----------------------|----------------------|
----------------------|----------------------|----------------------|
--3----3----3----3----|--3----3--------------|--7----7----7----7----|
----------------------|------------3----2----|----------------------|


                                                                     
----------------------|----------------------|----------------------|
----------------------|----------------------|----------------------|
--5----5----5----5----|--3----3----3----3----|--3----3--------------|
----------------------|----------------------|------------3----2----|


                                                        
---------------------------|---------------------------|
---------------------------|---------------------------|
------------7----6----7----|---------------------------|
--0----0-------------------|--3----3----5----3----2----|


                                                                       
---------------------------|----------------------|-------------------|
---------------------------|----------------------|-------------------|
------------7----6----7----|--3----3----2----5----|--7----------------|
--0----0-------------------|----------------------|-------------------|


                                                                      
--------------------|-------------------|----------------------------|
--------------------|-------------------|----------------------------|
--10----------------|--3----------------|--10--10--9--9--7--7--6--6--|
--------------------|-------------------|----------------------------|


                     
-------------------||
-------------------||
--7----------------||
-------------------||
Comments