Blind Guardian - Quest For Tanelorn Chords & Tabs

 

Quest For Tanelorn Chords & Tabs

Blind Guardian Chords & Tabs

Version: 1 Type: Bass Tab 0 ratings
1 star 2 stars 3 stars 4 stars 5 stars
comments

Quest For Tanelorn Bass Tab

tune down

F#||------------------|------------------|------------------|------------------|
C#||------------------|------------------|------------------|------------------|
G#||------------------|------------------|------------------|------------------|
D#||------------------|------------------|------------------|------------------|

                                                                            

                                                          
------------------|-------------------|------------------|
------------------|-------------------|------------------|
------------------|-------------------|------------------|
------------------|--0----------------|------------------|


                                                         
---------------------------|----------------------------|
---------------------------|----------------------------|
---------------------------|----------------------------|
--0--0-0-0--0-0-0-0-0------|--0--0-0-0--0-0-0-0-0--5----|


                                                         
---------------------------|----------------------------|
---------------------------|----------------------------|
---------------------------|----------------------------|
--0--0-0-0--0-0-0-0-0------|--0--0-0-0--0-0-0-0-0--5----|


                                                         
---------------------------|----------------------------|
---------------------------|----------------------------|
---------------------------|-----------------------3----|
--3--3-3-3--3-3-3-3-3------|--3--3-3-3--3-3-3-3-3-------|


                                                                              
---------------------------|----------------------------|--------------------|
---------------------------|----------------------------|--------------------|
---------------------------|-----------------------3----|--0------------0----|
--3--3-3-3--3-3-3-3-3------|--3--3-3-3--3-3-3-3-3-------|--------------------|


                                                                               
--------------------|------------------------------|--------------------------|
--------------------|------------------------------|--------------------------|
--1------------1----|--0--0-0-0--0-0-0--0-0-0--0-0-|--0--0-0-0--0-0-1---------|
--------------------|------------------------------|---------------------3----|


                                                                               
------------------------------|--------------------------|--------------------|
------------------------------|--------------------------|--------------------|
--0--0-0-0--0-0-0--0-0-0--0-0-|--0--0-0-0--0-0-1---------|--3------------3----|
------------------------------|---------------------3----|--------------------|


                                                                            
--------------------|----------------------------|-------------------------|
--------------------|----------------------------|---------------1----1----|
--1------------1----|--0--0-0-3--0--0--0-0-3--0--|--0--0-0-3--0------------|
--------------------|----------------------------|-------------------------|


                                                                            
----------------------------|-------------------------|--------------------|
----------------------------|---------------1----1----|--------------------|
--0--0-0-3--0--0--0-0-3--0--|--0--0-0-3--0------------|--------------------|
----------------------------|-------------------------|--0--------1--------|


                                                                             
---------------------|----------------------------|-------------------------|
---------------------|----------------------------|---------------1----1----|
-----------1----1----|--0--0-0-3--0--0--0-0-3--0--|--0--0-0-3--0------------|
--3------------------|----------------------------|-------------------------|


                                                       
----------------------------|-------------------------|
----------------------------|---------------1----1----|
--0--0-0-3--0--0--0-0-3--0--|--0--0-0-3--0------------|
----------------------------|-------------------------|


                                                                      
----------------------------------|----------------------------------|
----------------------------------|----------------------------------|
--3-3-3-3-3-3-3-3-3-3-3-3-3-3-3-3-|----------------------------------|
----------------------------------|--3-3-3-3-3-3-3-3-3-3-3-3-3-3-3-3-|


                                                          
------------------------------|--------------------------|
------------------------------|--------------------------|
--0--0-0-0--0-0-0--0-0-0--0-0-|--0--0-0-0--0-0-1---------|
------------------------------|---------------------3----|


                                                                              
------------------------------|--------------------------|-------------------|
------------------------------|--------------------------|-------------------|
--0--0-0-0--0-0-0--0-0-0--0-0-|--0--0-0-0--0-0-1----3----|--5----------------|
------------------------------|--------------------------|-------------------|


                                                             
-------------------|--------------------|-------------------|
-------------------|--------------------|-------------------|
--4----------------|--3------------2----|-------------------|
-------------------|--------------------|--3----------------|


                                                                                
-------------------|-------------------|-------------------|-------------------|
-------------------|-------------------|-------------------|-------------------|
-------------------|--5----------------|--0----------------|--0----------------|
--3----------------|-------------------|-------------------|-------------------|


                                                             
-------------------|-------------------|--------------------|
-------------------|-------------------|--------------------|
--5----------------|--4----------------|--3------------2----|
-------------------|-------------------|--------------------|


                                                                          
-------------------|--------------------------|--------------------------|
-------------------|--------------------------|--------------------------|
-------------------|--2--2--2--2--2--2--2--2--|--2--2--2--2--3--3--0--0--|
--3----------------|--------------------------|--------------------------|


                                                      
--------------------------|--------------------------|
--------------------------|--------------------------|
--2--2--2--2--2--2--2--2--|--2--2--2--2--3--3--0--0--|
--------------------------|--------------------------|


                                                      
--------------------------|--------------------------|
--------------------------|--------------------------|
--2--2--2--2--2--2--2--2--|--2--2--2--2--2--2--2--2--|
--------------------------|--------------------------|


                                                                           
--------------------------|--------------------------|--------------------|
--------------------------|--------------------------|--------------------|
--------------------------|--------------------------|--------------------|
--3--3--3--3--3--3--3--3--|--5--5--5--5--5--5--5--5--|--0------------0----|


                                                               
-------------------|--------------------|---------------------|
-------------------|--------------------|---------------------|
-------------------|--2------------2----|--2------------0--2--|
--0----------------|--------------------|---------------------|


                                                                
--------------------|---------------------|--------------------|
--------------------|---------------------|--------------------|
--3------------3----|--0------------3--0--|--2------------2----|
--------------------|---------------------|--------------------|


                                                              
-------------------|--------------------|--------------------|
-------------------|--------------------|--------------------|
--2----------------|--------------------|-----------0--------|
-------------------|--3------------3----|--0-----------------|


                                                                
--------------------|---------------------|--------------------|
--------------------|---------------------|--------------------|
--2------------2----|--2------------0--2--|--3------------3----|
--------------------|---------------------|--------------------|


                                                               
---------------------|--------------------|-------------------|
---------------------|--------------------|-------------------|
--0------------3--0--|--2------------2----|--2----------------|
---------------------|--------------------|-------------------|


                                                               
--------------------|--------------------|--------------------|
--------------------|--------------------|--------------------|
--------------------|-----------0--------|--2------------2----|
--3------------3----|--0-----------------|--------------------|


                                                                 
---------------------|--------------------|---------------------|
---------------------|--------------------|---------------------|
--2------------0--2--|--3------------3----|--0------------3--0--|
---------------------|--------------------|---------------------|


                                                              
--------------------|-------------------|--------------------|
--------------------|-------------------|--------------------|
--2------------2----|--2----------------|--------------------|
--------------------|-------------------|--3------------3----|


                                                                     
---------------------|-------------------|--------------------------|
---------------------|-------------------|--------------------------|
---------------------|-------------------|--------------------------|
--0--------5----3----|--2----------------|--3--2--0--2--3--2--5--2--|


                                                             
-------------------|--------------------|-------------------|
-------------------|--------------------|-------------------|
-------------------|--------------------|-------------------|
--3----------------|--5--------3--------|--2----------------|


                                                                   
--------------------------|-------------------|-------------------|
--------------------------|-------------------|-------------------|
--------------------------|-------------------|-------------------|
--3--2--0--2--3--2--5--2--|--3----------------|--5----------------|


                                                             
-------------------|-------------------|--------------------|
-------------------|-------------------|--------------------|
--5----------------|--4----------------|--3------------2----|
-------------------|-------------------|--------------------|


                                                                                
-------------------|-------------------|-------------------|-------------------|
-------------------|-------------------|-------------------|-------------------|
-------------------|-------------------|--5----------------|--0----------------|
--3----------------|--3----------------|-------------------|-------------------|


                                                            
-------------------|-------------------|-------------------|
-------------------|-------------------|-------------------|
--0----------------|--5----------------|--4----------------|
-------------------|-------------------|-------------------|

[ Tab from: http://www.guitartabs.cc/tabs/b/blind_guardian/quest_for_tanelorn_btab.html ]
                                                                    
--------------------|-------------------|--------------------------|
--------------------|-------------------|--------------------------|
--3------------2----|-------------------|--2--2--2--2--2--2--2--2--|
--------------------|--3----------------|--------------------------|


                                                      
--------------------------|--------------------------|
--------------------------|--------------------------|
--2--2--2--2--2--2--5--5--|--2--2--2--2--2--2--2--2--|
--------------------------|--------------------------|


                                                      
--------------------------|--------------------------|
--------------------------|--------------------------|
--2--2--2--2--2--2--5--5--|--2--2--2--2--2--2--2--2--|
--------------------------|--------------------------|


                                                      
--------------------------|--------------------------|
--------------------------|--------------------------|
--2--2--2--2--2--2--5--5--|--2--2--2--2--2--2--2--2--|
--------------------------|--------------------------|


                                                      
--------------------------|--------------------------|
--------------------------|--------------------------|
--2--2--2--2--5--5--6--6--|--7--7--7--7--7--7--7--7--|
--------------------------|--------------------------|


                                                      
--------------------------|--------------------------|
--------------------------|--------------------------|
--5--5--5--5--5--5--5--5--|--------------------------|
--------------------------|--3--3--3--3--3--3--3--3--|


                                                      
--------------------------|--------------------------|
--------------------------|--------------------------|
--3--3--3--3--5--5--5--5--|--7--7--7--7--7--7--7--7--|
--------------------------|--------------------------|


                                                      
--------------------------|--------------------------|
--------------------------|--------------------------|
--5--5--5--5--5--5--5--5--|--------------------------|
--------------------------|--3--3--3--3--3--3--3--3--|


                                                                                
--------------------------|--------------------------|-------------------------|
--------------------------|--------------------------|--------------5---4---2--|
--3--3--3--3--5--5--5--5--|--7--4--4--4--7--4--4--4--|--7--4--4--4-------------|
--------------------------|--------------------------|-------------------------|


                                                                                
--------------------------|-------------------------|--------------------------|
--------------------------|-------------------------|--------------------------|
--7--4--4--4--7--4--4--4--|--7--4--4--4--2---2---3--|--7--4--4--4--7--4--4--4--|
--------------------------|-------------------------|--------------------------|


                                                                               
-------------------------|--------------------------|-------------------------|
--------------5---4---2--|--------------------------|----------------------2--|
--7--4--4--4-------------|--7--4--4--4--7--4--4--4--|--7--4--4--4--2---2------|
-------------------------|--------------------------|-------------------------|


                                                                             
--------------------------|----------------------|--------------------------|
--------------------------|----------------------|--------------------------|
--5--5--5--5--5--5--5--5--|--6----6----3----3----|--5--5--5--5--5--5--5--5--|
--------------------------|----------------------|--------------------------|


                                                                         
----------------------|--------------------------|----------------------|
----------------------|--------------------------|----------------------|
------------6----6----|--5--5--5--5--5--5--5--5--|--6----6----3----3----|
--6----6--------------|--------------------------|----------------------|


                                                                         
--------------------------|----------------------|----------------------|
--------------------------|----------------------|----------------------|
--5--5--5--5--5--5--5--5--|------------6----6----|--5----5----5----5----|
--------------------------|--6----6--------------|----------------------|


                                                                     
----------------------|----------------------|----------------------|
----------------------|----------------------|----------------------|
--3----3----3----3----|--3----3----3----3----|--5----5----5----5----|
----------------------|----------------------|----------------------|


                                                                     
----------------------|----------------------|----------------------|
----------------------|----------------------|----------------------|
--5----5----5----5----|--3----3----3----3----|--3----3----3----3----|
----------------------|----------------------|----------------------|


                                                                              
----------------------|----------------------------|-------------------------|
----------------------|----------------------------|---------------1----1----|
--1----1----1----1----|--0--0-0-3--0--0--0-0-3--0--|--0--0-0-3--0------------|
----------------------|----------------------------|-------------------------|


                                                                            
----------------------------|-------------------------|--------------------|
----------------------------|---------------1----1----|--------------------|
--0--0-0-3--0--0--0-0-3--0--|--0--0-0-3--0------------|--------------------|
----------------------------|-------------------------|--0--------1--------|


                                                                             
---------------------|----------------------------|-------------------------|
---------------------|----------------------------|---------------1----1----|
-----------1----1----|--0--0-0-3--0--0--0-0-3--0--|--0--0-0-3--0------------|
--3------------------|----------------------------|-------------------------|


                                                       
----------------------------|-------------------------|
----------------------------|---------------1----1----|
--0--0-0-3--0--0--0-0-3--0--|--0--0-0-3--0------------|
----------------------------|-------------------------|


                                                                      
----------------------------------|----------------------------------|
----------------------------------|----------------------------------|
--3-3-3-3-3-3-3-3-3-3-3-3-3-3-3-3-|----------------------------------|
----------------------------------|--3-3-3-3-3-3-3-3-3-3-3-3-3-3-3-3-|


                                                          
------------------------------|--------------------------|
------------------------------|--------------------------|
--0--0-0-0--0-0-0--0-0-0--0-0-|--0--0-0-0--0-0-1---------|
------------------------------|---------------------3----|


                                                          
------------------------------|--------------------------|
------------------------------|--------------------------|
--0--0-0-0--0-0-0--0-0-0--0-0-|--0--0-0-0--0-0-1---------|
------------------------------|---------------------3----|


                                                                               
--------------------------|-------------------------|-------------------------|
--------------------------|-------------------------|-------------------------|
--5--5--5--5--5--5--5--5--|--5--5--5--5--5--5-------|-------------------------|
--------------------------|--------------------4----|--3--3--3--3--3--3--3----|


                                                                               
-------------------------|--------------------------|-------------------------|
-------------------------|--------------------------|-------------------------|
--1--1--1--1--1--1--1----|--5--5--5--5--5--5--5--5--|--5--5--5--5--5--5-------|
-------------------------|--------------------------|--------------------4----|


                                                                               
-------------------------|-------------------------|--------------------------|
-------------------------|-------------------------|--------------------------|
-------------------------|--1--1--1--1--1--1--1----|--0--0--0--0--0--0--0--0--|
--3--3--3--3--3--3--3----|-------------------------|--------------------------|


                                                      
--------------------------|--------------------------|
--------------------------|--------------------------|
--1--1--1--1--1--1--1--1--|--------------------------|
--------------------------|--1--1--1--1--1--1--1--1--|


                                                                   
--------------------------|-------------------|-------------------|
--------------------------|-------------------|-------------------|
--------------------------|--5----------------|--4----------------|
--3--3--3--3--3--3--3--3--|-------------------|-------------------|


                                                             
--------------------|-------------------|-------------------|
--------------------|-------------------|-------------------|
--3------------2----|-------------------|-------------------|
--------------------|--3----------------|--3----------------|


                                                                                
-------------------|-------------------|-------------------|-------------------|
-------------------|-------------------|-------------------|-------------------|
--5----------------|--0----------------|--0----------------|--5----------------|
-------------------|-------------------|-------------------|-------------------|


                                                             
-------------------|--------------------|-------------------|
-------------------|--------------------|-------------------|
--4----------------|--3------------2----|-------------------|
-------------------|--------------------|--3----------------|


                                                                                
-------------------|-------------------|-------------------|-------------------|
-------------------|-------------------|-------------------|-------------------|
-------------------|--5----------------|--0----------------|--0----------------|
--3----------------|-------------------|-------------------|-------------------|


                                                             
-------------------|-------------------|--------------------|
-------------------|-------------------|--------------------|
--5----------------|--4----------------|--3------------2----|
-------------------|-------------------|--------------------|


                                                                                
-------------------|-------------------|-------------------|-------------------|
-------------------|-------------------|-------------------|-------------------|
-------------------|-------------------|--5----------------|--0----------------|
--3----------------|--3----------------|-------------------|-------------------|


                                                            
-------------------|-------------------|-------------------|
-------------------|-------------------|-------------------|
--0----------------|--5----------------|--4----------------|
-------------------|-------------------|-------------------|


                                                                              
--------------------|-------------------|------------------|-----------------|
--------------------|-------------------|------------------|-----------------|
--3------------2----|-------------------|------------------|-----------------|
--------------------|--3----------------|------------------|--3----2----0----|


                                                                      
-------------------|------------------|------------------|----------||
-------------------|------------------|------------------|----------||
--5----------------|------------------|------------------|----------||
-------------------|------------------|------------------|----------||
Comments