Blind Guardian - Noldor Chords & Tabs

 

Noldor Chords & Tabs

Blind Guardian Chords & Tabs

Version: 1 Type: Bass Tab 0 ratings
1 star 2 stars 3 stars 4 stars 5 stars
comments

Noldor Bass Tab

Tune Down

F#||------------------|------------------|------------------|------------------|
C#||------------------|------------------|------------------|------------------|
G#||------------------|------------------|------------------|------------------|
D#||------------------|------------------|------------------|------------------|


                                                                            
------------------|------------------|------------------|------------------|
------------------|------------------|------------------|------------------|
------------------|------------------|------------------|------------------|
------------------|------------------|------------------|------------------|


                                                                                
-------------------|------------------|---------------------|------------------|
-------------------|------------------|---------------------|------------------|
--5----------------|------------------|--1------------------|------------------|
-------------------|------------------|-----------5/-3------|------------------|


                                                               
---------------------|------------------|---------------------|
---------------------|------------------|---------------------|
--5--------3/-5------|------------------|--1------------------|
---------------------|------------------|-----------5/-3------|


                                                            
------------------|---------------------|------------------|
------------------|---------------------|------------------|
------------------|--5--------3/-5------|------------------|
------------------|---------------------|------------------|


                                                               
---------------------|------------------|---------------------|
---------------------|------------------|---------------------|
--1------------------|------------------|--5--------3/-5------|
-----------5/-3------|------------------|---------------------|


                                                            
------------------|---------------------|------------------|
------------------|---------------------|------------------|
------------------|--1------------------|------------------|
------------------|-----------5/-3------|------------------|


                                                                 
--------------------|----------------------|--------------------|
--------------------|----------------------|--------------------|
--5--------8--------|-----------------3----|--5--------8--------|
--------------------|--6h-5/-3-------------|--------------------|


                                                                   
----------------------|--------------------|----------------------|
----------------------|--------------------|----------------------|
-------------3--------|--5--------8--------|-----------------3----|
--6h-5/-3-------------|--------------------|--6h-5/-3-------------|


                                                                  
--------------------|----------------------|---------------------|
--------------------|----------------------|---------------------|
--5--------8--------|-------------3--------|--5--5--5------------|
--------------------|--6h-5/-3-------------|---------------------|


                                                                    
----------------------|---------------------|----------------------|
----------------------|---------------------|----------------------|
----------------------|--5--5--5------------|----------------------|
----------4--4--4--4--|---------------------|----------4--4--4--4--|


                                                                   
---------------------|----------------------|---------------------|
---------------------|----------------------|---------------------|
--5--5--5------------|----------------------|--5--5--5------------|
---------------------|----------4--4--4--4--|---------------------|


                                                                              
----------------------|----------------------------|-------------------------|
----------------------|----------------------------|-------------------------|
----------------------|--5-5-5-5-5----5-5-5-5-5----|--8-8-8-8-8--------------|
----------4--4--4--4--|----------------------------|-------------5----4------|


                                                     
----------------------------|-----------------------|
----------------------------|-----------7----6------|
--5-5-5-5-5----5-5-5-5-5----|--5--0--5--------------|
----------------------------|-----------------------|


                                                       
----------------------------|-------------------------|
----------------------------|-------------------------|
--5-5-5-5-5----5-5-5-5-5----|--8-8-8-8-8--------------|
----------------------------|-------------5----4------|


                                                                         
----------------------------|-----------------------|-------------------|
----------------------------|-----------7----6------|-------------------|
--5-5-5-5-5----5-5-5-5-5----|--5--0--5--------------|--5----------------|
----------------------------|-----------------------|-------------------|


                                                               
--------------------|--------------------|--------------------|
--------------------|--------------------|--6--------9--------|
--0------------0----|---------------7----|--------------------|
--------------------|--0-----------------|--------------------|


                                                                    
--------------------|---------------------|------------------------|
---------------0----|--3------------2--0--|------------------------|
--1-----------------|---------------------|--0----0--0--0----0--0--|
--------------------|---------------------|------------------------|


                                                                         
-----------------------|------------------------|-----------------------|
-----------------------|------------------------|-----------------------|
--1----1--1--1---------|--0----0--0--0----0--0--|--1----1--1--1---------|
------------------3----|------------------------|------------------3----|


                                                                          
------------------------|-----------------------|------------------------|
------------------------|-----------------------|------------------------|
--0----0--0--0----0--0--|--1----1--1--1---------|--0----0--0--0----0--0--|
------------------------|------------------3----|------------------------|


                                                                  
------------------------|---------------------|------------------|
------------------------|---------------------|------------------|
--0----0--0--0----0--0--|--5--------3/-5------|------------------|
------------------------|---------------------|------------------|


                                                               
---------------------|------------------|---------------------|
---------------------|------------------|---------------------|
--1------------------|------------------|--5--------3/-5------|
-----------5/-3------|------------------|---------------------|


                                                            
------------------|---------------------|------------------|
------------------|---------------------|------------------|
------------------|--1------------------|------------------|
------------------|-----------5/-3------|------------------|


                                                               
---------------------|------------------|---------------------|
---------------------|------------------|---------------------|
--5--------3/-5------|------------------|--1------------------|
---------------------|------------------|-----------5/-3------|


                                                            
------------------|---------------------|------------------|
------------------|---------------------|------------------|
------------------|--5--------3/-5------|------------------|
------------------|---------------------|------------------|


                                                              
---------------------|------------------|--------------------|
---------------------|------------------|--------------------|
--1------------------|------------------|--5--------8--------|
-----------5/-3------|------------------|--------------------|


                                                                   
----------------------|--------------------|----------------------|
----------------------|--------------------|----------------------|
-----------------3----|--5--------8--------|-------------3--------|
--6h-5/-3-------------|--------------------|--6h-5/-3-------------|


                                                                 
--------------------|----------------------|--------------------|
--------------------|----------------------|--------------------|
--5--------8--------|-----------------3----|--5--------8--------|
--------------------|--6h-5/-3-------------|--------------------|


                                                                 
----------------------|---------------------|-------------------|
----------------------|---------------------|-------------------|
-------------3--------|--5--------5----5----|--------------0----|
--6h-5/-3-------------|---------------------|-------------------|


                                                                 
---------------------|--------------------|---------------------|
---------------------|--------------------|---------------------|
--5--------5----5----|----------5--3------|--5--------5----5----|
---------------------|--------------------|---------------------|


                                                               
-------------------|---------------------|--------------------|
-------------------|---------------------|--------------------|
--------------0----|--5--------5----5----|----------5--0------|
-------------------|---------------------|--------------------|


                                                       
----------------------------|-------------------------|
----------------------------|-------------------------|
--5-5-5-5-5----5-5-5-5-5----|--8-8-8-8-8--------------|
----------------------------|-------------5----4------|


                                                     
----------------------------|-----------------------|
----------------------------|-----------7----6------|
--5-5-5-5-5----5-5-5-5-5----|--5--0--5--------------|
----------------------------|-----------------------|


                                                       
----------------------------|-------------------------|
----------------------------|-------------------------|
--5-5-5-5-5----5-5-5-5-5----|--8-8-8-8-8--------------|
----------------------------|-------------5----4------|


                                                                         
----------------------------|-----------------------|-------------------|
----------------------------|-----------7----6------|-------------------|
--5-5-5-5-5----5-5-5-5-5----|--5--0--5--------------|--5----------------|
----------------------------|-----------------------|-------------------|


                                                               
--------------------|--------------------|--------------------|
--------------------|--------------------|--6--------9--------|
--0------------0----|---------------7----|--------------------|
--------------------|--0-----------------|--------------------|


                                                                    
--------------------|---------------------|------------------------|
---------------0----|--3------------2--0--|------------------------|
--1-----------------|---------------------|--0----0--0--0----0--0--|
--------------------|---------------------|------------------------|


                                                                         
-----------------------|------------------------|-----------------------|
-----------------------|------------------------|-----------------------|
--1----1--1--1---------|--0----0--0--0----0--0--|--1----1--1--1---------|
------------------3----|------------------------|------------------3----|


                                                                          
------------------------|-----------------------|------------------------|
------------------------|-----------------------|------------------------|
--0----0--0--0----0--0--|--1----1--1--1---------|--0----0--0--0----0--0--|
------------------------|------------------3----|------------------------|


                                                                  
------------------------|---------------------|------------------|
------------------------|---------------------|------------------|
--0----0--0--0----0--0--|--5--------3/-5------|------------------|
------------------------|---------------------|------------------|


                                                               
---------------------|------------------|---------------------|
---------------------|------------------|---------------------|
--1------------------|------------------|--5--------3/-5------|
-----------5/-3------|------------------|---------------------|


                                                            
------------------|---------------------|------------------|
------------------|---------------------|------------------|
------------------|--1------------------|------------------|
------------------|-----------5/-3------|------------------|


                                                               
---------------------|------------------|---------------------|
---------------------|------------------|---------------------|
--5--------3/-5------|------------------|--1------------------|
---------------------|------------------|-----------5/-3------|


                                                            
------------------|---------------------|------------------|
------------------|---------------------|------------------|
------------------|--5--------3/-5------|------------------|
------------------|---------------------|------------------|


                                                             
---------------------|------------------|-------------------|
---------------------|------------------|-------------------|
--1------------------|------------------|--5----------------|
-----------5/-3------|------------------|-------------------|

[ Tab from: http://www.guitartabs.cc/tabs/b/blind_guardian/noldor_btab.html ]
                                                              
--------------------|-------------------|--------------------|
--------------------|-------------------|--3-----------------|
--5--------0--------|--1----------------|-----------4--------|
--------------------|-------------------|--------------------|


                                                             
-------------------|--------------------|-------------------|
-------------------|--------------------|-------------------|
--5----------------|--5--------0--------|--1----------------|
-------------------|--------------------|-------------------|


                                                            
--------------------|--------------------------------------|
--3-----------------|--------------------------------------|
-----------4--------|--5--5--5--5--5--5--5--5--5--5--5--5--|
--------------------|--------------------------------------|


                                                                          
----------------------------------|--------------------------------------|
------------------7-7-7-7-7-7-7-7-|--8--8--8--8--8--8--8--8--8--8--8--8--|
--5-5-5-5-5-5-5-5-----------------|--------------------------------------|
----------------------------------|--------------------------------------|


                                                                          
----------------------------------|--------------------------------------|
--3-3-3-3-3-3-3-3-----------------|--------------------------------------|
------------------4-4-4-4-4-4-4-4-|--5--5--5--5--5--5--5--5--5--5--5--5--|
----------------------------------|--------------------------------------|


                                                                          
----------------------------------|--------------------------------------|
------------------7-7-7-7-7-7-7-7-|--8--8--8--8--8--8--8--8--8--8--8--8--|
--5-5-5-5-5-5-5-5-----------------|--------------------------------------|
----------------------------------|--------------------------------------|


                                                          
----------------------------------|----------------------|
--3-3-3-3-3-3-3-3-----------------|----------------------|
------------------4-4-4-4-4-4-4-4-|--5----5----5----5----|
----------------------------------|----------------------|


                                                          
----------------------|----------------------------------|
----------------------|----------------------------------|
--5----5----5----5----|----------------------------------|
----------------------|--4-4-4-4-4-4-4-4-4-4-4-4-4-4-4-4-|


                                                                          
---------------------------|----------------------|----------------------|
---------------------------|----------------------|----------------------|
---------------------------|--5----5----5----5----|--5----5----5----5----|
--4-4-4-4-4-4-4-4-4--------|----------------------|----------------------|


                                                               
----------------------------------|---------------------------|
----------------------------------|---------------------------|
----------------------------------|---------------------------|
--4-4-4-4-4-4-4-4-4-4-4-4-4-4-4-4-|--4-4-4-4-4-4-4-4-4--------|


                                                                              
--------7-----------------|-----------------------|--7-----------------------|
-----7-----------5--------|--3-----------5-----7--|-----------5--------3-----|
--5--------5--3--------3--|-----------5-----5-----|-----5--3--------3--------|
--------------------1-----|-----1--3--------------|--------------1--------1--|


                                                                     
-----------------|--------7-----------------|-----------------------|
--------5--------|-----7-----------5--------|--3-----------5-----7--|
-----5--------3--|--5--------5--3--------3--|-----------5-----5-----|
--3--------3-----|--------------------1-----|-----1--3--------------|


                                                                 
--7-----------------------|-----------------|-------------------|
-----------5--------3-----|--------5--------|-------------------|
-----5--3--------3--------|-----5--------3--|--5----------------|
--------------1--------1--|--3--------3-----|-------------------|


                                                                              
------------------|-------------------|------------------|-------------------|
------------------|-------------------|------------------|-------------------|
------------------|--5----------------|------------------|--5----------------|
------------------|-------------------|------------------|-------------------|


                                                          
------------------|-------------------|------------------|
------------------|-------------------|------------------|
------------------|--5----------------|------------------|
------------------|-------------------|------------------|


                                                      
--------------------------|--------------------------|
--------------------------|--------------------------|
--5--5--5--5--5--5--5--5--|--5--5--5--5--5--5--5--5--|
--------------------------|--------------------------|


                                                      
--------------------------|--------------------------|
--------------------------|--------------------------|
--5--5--5--5--5--5--5--5--|--5--5--5--5--5--5--5--5--|
--------------------------|--------------------------|


                                                      
--------------------------|--------------------------|
--------------------------|--------------------------|
--5--5--5--5--5--5--5--5--|--5--5--5--5--5--5--5--5--|
--------------------------|--------------------------|


                                                      
--------------------------|--------------------------|
--------------------------|--------------------------|
--5--5--5--5--5--5--5--5--|--5--5--5--5--5--5--5--5--|
--------------------------|--------------------------|


                                                      
--------------------------|--------------------------|
--------------------------|--------------------------|
--5--5--5--5--5--5--5--5--|--5--5--5--5--5--5--5--5--|
--------------------------|--------------------------|


                                                      
--------------------------|--------------------------|
--------------------------|--------------------------|
--5--5--5--5--5--5--5--5--|--------------------------|
--------------------------|--4--4--4--4--4--4--4--4--|


                                                      
--------------------------|--------------------------|
--------------------------|--------------------------|
--5--5--5--5--5--5--5--5--|--------------------------|
--------------------------|--4--4--4--4--4--4--4--4--|


                                                      
--------------------------|--------------------------|
--------------------------|--------------------------|
--5--5--5--5--5--5--5--5--|--------------------------|
--------------------------|--4--4--4--4--4--4--4--4--|


                                                      
--------------------------|--------------------------|
--------------------------|--------------------------|
--5--5--5--5--5--5--5--5--|--------------------------|
--------------------------|--4--4--4--4--4--4--4--4--|


                                                       
----------------------------|-------------------------|
----------------------------|-------------------------|
--5-5-5-5-5----5-5-5-5-5----|--8-8-8-8-8--------------|
----------------------------|-------------5----4------|


                                                     
----------------------------|-----------------------|
----------------------------|-----------7----6------|
--5-5-5-5-5----5-5-5-5-5----|--5--0--5--------------|
----------------------------|-----------------------|


                                                       
----------------------------|-------------------------|
----------------------------|-------------------------|
--5-5-5-5-5----5-5-5-5-5----|--8-8-8-8-8--------------|
----------------------------|-------------5----4------|


                                                                         
----------------------------|-----------------------|-------------------|
----------------------------|-----------7----6------|-------------------|
--5-5-5-5-5----5-5-5-5-5----|--5--0--5--------------|--5----------------|
----------------------------|-----------------------|-------------------|


                                                               
--------------------|--------------------|--------------------|
--------------------|--------------------|--6--------9--------|
--0------------0----|---------------7----|--------------------|
--------------------|--0-----------------|--------------------|


                                                                    
--------------------|---------------------|------------------------|
---------------0----|--3------------2--0--|------------------------|
--1-----------------|---------------------|--0----0--0--0----0--0--|
--------------------|---------------------|------------------------|


                                                                         
-----------------------|------------------------|-----------------------|
-----------------------|------------------------|-----------------------|
--1----1--1--1---------|--0----0--0--0----0--0--|--1----1--1--1---------|
------------------3----|------------------------|------------------3----|


                                                                          
------------------------|-----------------------|------------------------|
------------------------|-----------------------|------------------------|
--0----0--0--0----0--0--|--1----1--1--1---------|--0----0--0--0----0--0--|
------------------------|------------------3----|------------------------|


                                                                  
------------------------|---------------------|------------------|
------------------------|---------------------|------------------|
--0----0--0--0----0--0--|--5--------3/-5------|------------------|
------------------------|---------------------|------------------|


                                                               
---------------------|------------------|---------------------|
---------------------|------------------|---------------------|
--1------------------|------------------|--5--------3/-5------|
-----------5/-3------|------------------|---------------------|


                                                            
------------------|---------------------|------------------|
------------------|---------------------|------------------|
------------------|--1------------------|------------------|
------------------|-----------5/-3------|------------------|


                                                               
---------------------|------------------|---------------------|
---------------------|------------------|---------------------|
--5--------3/-5------|------------------|--1------------------|
---------------------|------------------|-----------5/-3------|


                                                            
------------------|---------------------|------------------|
------------------|---------------------|------------------|
------------------|--5--------3/-5------|------------------|
------------------|---------------------|------------------|


                                                               
---------------------|------------------|---------------------|
---------------------|------------------|---------------------|
--1------------------|------------------|--5--------3/-5------|
-----------5/-3------|------------------|---------------------|


                                                            
------------------|---------------------|------------------|
------------------|---------------------|------------------|
------------------|--1------------------|------------------|
------------------|-----------5/-3------|------------------|


                                                               
---------------------|------------------|---------------------|
---------------------|------------------|---------------------|
--5--------3/-5------|------------------|--1------------------|
---------------------|------------------|-----------5/-3------|


                                                             
------------------|---------------------|-------------------|
------------------|---------------------|-------------------|
------------------|--5--------x----1----|----------1--------|
------------------|---------------------|-------------------|


                                                                
---------------------|-------------------|---------------------|
---------------------|-------------------|---------------------|
----------------5----|----------5--------|--1--------x----5----|
--3--------x---------|-------------------|---------------------|


                                                              
-------------------|---------------------|-------------------|
-------------------|---------------------|-------------------|
----------5--------|--1--------x----0----|------0------------|
-------------------|---------------------|-------------------|


                                                                
---------------------|-------------------|---------------------|
---------------------|-------------------|---------------------|
--5--------x----1----|----------1--------|----------------5----|
---------------------|-------------------|--3--------x---------|


                                                              
-------------------|---------------------|-------------------|
-------------------|---------------------|-------------------|
----------5--------|--1--------x----5----|----------5--------|
-------------------|---------------------|-------------------|


                                                              
---------------------|-------------------|-------------------|
---------------------|-------------------|-------------------|
--1--------x----0----|------0------------|--5----------------|
---------------------|-------------------|-------------------|


                                                                            
------------------|------------------|------------------|------------------|
------------------|------------------|------------------|------------------|
------------------|------------------|------------------|------------------|
------------------|------------------|------------------|------------------|


                    
------------------||
------------------||
------------------||
------------------||
Comments