Blind Guardian - Mr Sandman Chords & Tabs

 

Mr Sandman Chords & Tabs

Blind Guardian Chords & Tabs

Version: 1 Type: Bass Tab 0 ratings
1 star 2 stars 3 stars 4 stars 5 stars
comments

Mr Sandman Bass Tab

Tune Down

F#||------------------|-------------------|-------------------|
C#||------------------|-------------------|-------------------|
G#||------------------|-------------------|--2----------------|
D#||------------------|--------------2----|-------------------|


                                                                    
--------------------|----------------------|-----------------------|
--------------------|----------------------|-----------------------|
--4-----------------|--2---------2---------|--1---------1----8--7--|
-----------2--------|-------2---------2----|-------1---------------|


                                                                      
----------------------|-----------------------|----------------------|
----------------------|-----------------------|----------------------|
--6---------6---------|-------6---------6--5--|--4---------4---------|
-------6---------6----|--4---------4----------|-------4---------4----|


                                                                      
-----------------------|----------------------|----------------------|
-----------------------|-------4---------4----|----------------------|
-------4---------4--3--|--2---------2---------|-------5---------4----|
--2---------2----------|----------------------|--3---------2---------|


                                                                      
----------------------|----------------------|-----------------------|
-------4---------4----|-------3---------3----|-------8---------8--7--|
--2---------2---------|--1---------1---------|--6---------6----------|
----------------------|----------------------|-----------------------|


                                                                       
-----------------------|----------------------|-----------------------|
--6---------6----------|-------6---------6----|--2---------2----------|
-------6---------6--5--|--4---------4---------|-------2---------2--4--|
-----------------------|----------------------|-----------------------|


                                                                 
----------------------|---------------------|-------------------|
----------------------|-------4-------------|-------------------|
--2---------4---------|--2---------2--------|--7----------------|
-------2---------2----|---------------------|-------------------|


                                                              
--------------------|-------------------|--------------------|
--------------------|-------------------|--------------------|
--9-----------------|--7----------------|--9-----------------|
-----------7--------|-------------------|-----------7--------|


                                                                       
----------------------|-----------------------|-----------------------|
----------------------|-----------------4--5--|--6---------6----------|
--7---------7---------|--6---------6----------|-------6---------7--6--|
-------7---------7----|-------6---------------|-----------------------|


                                                                       
-----------------------|----------------------|-----------------------|
-------6---------6--5--|--4---------4---------|-------4---------------|
--4---------4----------|-------4---------4----|--2---------2----4--6--|
-----------------------|----------------------|-----------------------|


                                                                      
----------------------|-----------------------|----------------------|
----------------------|-----------------------|----------------------|
--7---------7---------|-------9---------4--6--|--7---------7---------|
-------7---------7----|--8---------7----------|-------7---------7----|

[ Tab from: http://www.guitartabs.cc/tabs/b/blind_guardian/mr_sandman_btab.html ]
                                                                        
-----------------------|-----------------------|-----------------------|
-----------------4--5--|--6---------6----------|-------6---------6--5--|
--6---------6----------|-------6---------7--6--|--4---------4----------|
-------6---------------|-----------------------|-----------------------|


                                                                       
-----------------------|-----------------------|----------------------|
--4---------4----4--6--|--7---------7----------|----------------------|
-------4---------------|-------7---------7-----|--7---------9---------|
-----------------------|--------------------7--|-------7---------7----|


                                                                   
------------------------|--------------------|--------------------|
------------------------|--------------------|--------------------|
--7---------7--------6--|--7--------------7--|--4-----------------|
-------7-------7--9-----|--------------------|-----------2--------|


                                                                    
-------------------|--------------------|--------------------------|
-------------------|--------------------|--------------------------|
--4----------------|--2-----------------|--2--2--2--2--2--2--2--2--|
-------------------|-----------2--------|--------------------------|


                                                      
--------------------------|--------------------------|
--------------------------|--------------------------|
--1--1--3--3--4--4--5--5--|--6--6--6--6--6--6--------|
--------------------------|--------------------6--5--|


                                                      
--------------------------|--------------------------|
--------------------------|--------------------------|
--------------------6--5--|--4--4--4--4--4--4--4--4--|
--4--4--4--4--4--4--------|--------------------------|


                                                                     
--------------------------|-------------------|---------------------|
--------------------------|-------------------|---------------------|
-----------------------1--|--2----------------|------------------1--|
--2--2--2--2--2--2--4-----|-------------------|------------2--4-----|


                                                      
--------------------------|--------------------------|
--------------------------|--------------------------|
--2--2--2--2--2--2--2--2--|--1--1--1--1--1--1--4--5--|
--------------------------|--------------------------|


                                                      
--------------------------|--------------------------|
--------------------------|--------------------------|
--6--6--6--6--6--6--------|--------------------6--5--|
--------------------6--5--|--4--4--4--4--4--4--------|


                                                                             
--------------------------|--------------------------|----------------------|
--------------------------|--------------------------|-------4---------6----|
--4--4--4--4--4--4--4--6--|--7--7--7--7--7--7--7--7--|--2---------4---------|
--------------------------|--------------------------|----------------------|


                                                                     
----------------------|----------------------|----------------------|
-------4---------6----|-------4---------4----|-------6----4---------|
--2---------4---------|--2---------2---------|--4--------------6----|
----------------------|----------------------|----------------------|


                                                               
--------------------------|--------------|--4----------------||
--------------------------|-----------4--|-------------------||
--2--2--2--2--2--2--2--2--|--2--4--6-----|-------------------||
--------------------------|--------------|-------------------||
Comments