Blind Guardian - Mirror Mirror Chords & Tabs

 

Mirror Mirror Chords & Tabs

Blind Guardian Chords & Tabs

Version: 1 Type: Bass Tab 0 ratings
1 star 2 stars 3 stars 4 stars 5 stars
comments

Mirror Mirror Bass Tab

Tune Down

F#||-------------------|---------------------|-------------------|
C#||-------------------|---------------------|-------------------|
G#||-------------------|----------------3----|--4----------------|
D#||--6----------------|--4----6-------------|-------------------|
A#||-------------------|---------------------|-------------------|


                                                               
--------------------|-------------------|---------------------|
--------------------|-------------------|---------------------|
--3----4------------|-------------------|----------------3----|
--------------------|--6----------------|--4----6-------------|
--------------------|-------------------|---------------------|


                                                             
-------------------|--------------------|-------------------|
-------------------|--------------------|-------------------|
--4----------------|--3----4------------|-------------------|
-------------------|--------------------|--6----------------|
-------------------|--------------------|-------------------|


                                                               
---------------------|-------------------|--------------------|
---------------------|-------------------|--------------------|
----------------3----|--4----------------|--3----4------------|
--4----6-------------|-------------------|--------------------|
---------------------|-------------------|--------------------|


                                                              
-------------------|---------------------|-------------------|
-------------------|---------------------|-------------------|
-------------------|----------------3----|--4----------------|
--6----------------|--4----6-------------|-------------------|
-------------------|---------------------|-------------------|


                                                                
--------------------|---------------------|--------------------|
--------------------|---------------------|--------------------|
--3----4------------|---------------------|--------------------|
--------------------|--6--------6/-----0--|------4----6--------|
--------------------|---------------------|--------------------|


                                                                     
---------------------|------------------------|---------------------|
---------------------|------------------------|---------------------|
--4----4----4--------|------------------------|---------------------|
---------------------|--4----4----4--4--4--4--|--6--------6/-----0--|
---------------------|------------------------|---------------------|


                                                                    
--------------------|---------------------|------------------------|
--------------------|---------------------|------------------------|
--------------------|--4----4----4--------|------------------------|
------4----6--------|---------------------|--4----4----4--4--4--4--|
--------------------|---------------------|------------------------|


                                                                      
----------------------------------|----------------------------------|
----------------------------------|----------------------------------|
----------------------------------|----------------------------------|
--6-6-6-6-6-6-6-6-6-6-6-6-6-6-6-6-|--6-6-6-6-6-6-6-6-6-6-6-6-6-6-6-6-|
----------------------------------|----------------------------------|


                                                                      
----------------------------------|----------------------------------|
----------------------------------|----------------------------------|
--4-4-4-4-4-4-4-4-4-4-4-4-4-4-4-4-|----------------------------------|
----------------------------------|--4-4-4-4-4-4-4-4-2-2-2-2-2-2-2-2-|
----------------------------------|----------------------------------|


                                                                      
----------------------------------|----------------------------------|
----------------------------------|----------------------------------|
----------------------------------|----------------------------------|
--6-6-6-6-6-6-6-6-6-6-6-6-6-6-6-6-|--6-6-6-6-6-6-6-6-6-6-6-6-6-6-6-6-|
----------------------------------|----------------------------------|


                                                                      
----------------------------------|----------------------------------|
----------------------------------|----------------------------------|
--4-4-4-4-4-4-4-4-4-4-4-4-4-4-4-4-|----------------------------------|
----------------------------------|--4-4-4-4-4-4-4-4-2-2-2-2-2-2-2-2-|
----------------------------------|----------------------------------|


                                                                      
----------------------------------|----------------------------------|
----------------------------------|----------------------------------|
----------------------------------|----------------------------------|
--6-6-6-6-6-6-6-6-6-6-6-6-6-6-6-6-|--2-2-2-2-2-2-2-2-2-2-2-2-2-2-2-2-|
----------------------------------|----------------------------------|


                                                                      
----------------------------------|----------------------------------|
----------------------------------|----------------------------------|
--4-4-4-4-4-4-4-4-4-4-4-4-4-4-4-4-|----------------------------------|
----------------------------------|--4-4-4-4-4-4-4-4-4-4-4-4-4-4-4-4-|
----------------------------------|----------------------------------|


                                                                      
----------------------------------|----------------------------------|
----------------------------------|----------------------------------|
----------------------------------|----------------------------------|
--6-6-6-6-6-6-6-6-6-6-6-6-6-6-6-6-|--2-2-2-2-2-2-2-2-2-2-2-2-2-2-2-2-|
----------------------------------|----------------------------------|


                                                                      
----------------------------------|----------------------------------|
----------------------------------|----------------------------------|
--4-4-4-4-4-4-4-4-4-4-4-4-4-4-4-4-|----------------------------------|
----------------------------------|--4-4-4-4-4-4-4-4-4-4-4-4-4-4-4-4-|
----------------------------------|----------------------------------|


                                                       
----------------------------|-------------------------|
----------------------------|-------------------------|
----------------------------|--6----6-----------------|
--6----6-6-6-6-6----6-6-6-6-|------------6----6-6-6-6-|
----------------------------|-------------------------|


                                                      
--------------------------|--------------------------|
--------------------------|--------------------------|
--4--4--4--4--4--4--4--4--|--------------------------|
--------------------------|--4--4--4--4--2--2--2--2--|
--------------------------|--------------------------|


                                                       
----------------------------|-------------------------|
----------------------------|-------------------------|
----------------------------|--6----6-----------------|
--6----6-6-6-6-6----6-6-6-6-|------------6----6-6-6-6-|
----------------------------|-------------------------|


                                                      
--------------------------|--------------------------|
--------------------------|--------------------------|
--4--4--4--4--4--4--4--4--|--------------------------|
--------------------------|--4--4--4--4--2--2--2--2--|
--------------------------|--------------------------|


                                                                      
----------------------------------|----------------------------------|
----------------------------------|----------------------------------|
----------------------------------|----------------------------------|
--6-6-6-6-6-6-6-6-6-6-6-6-6-6-6-6-|--4-4-4-4-4-4-4-4-4-4-4-4-4-4-4-4-|
----------------------------------|----------------------------------|


                                                                      
----------------------------------|----------------------------------|
----------------------------------|----------------------------------|
----------------------------------|----------------------------------|
----------------------------------|--2-2-2-2-2-2-2-2-4-4-4-4-4-4-4-4-|
--4-4-4-4-4-4-4-4-4-4-4-4-4-4-4-4-|----------------------------------|


                                                                      
----------------------------------|----------------------------------|
----------------------------------|----------------------------------|
----------------------------------|----------------------------------|
--6-6-6-6-6-6-6-6-6-6-6-6-6-6-6-6-|--4-4-4-4-4-4-4-4-4-4-4-4-4-4-4-4-|
----------------------------------|----------------------------------|


                                                                      
----------------------------------|----------------------------------|
----------------------------------|----------------------------------|
----------------------------------|----------------------------------|
----------------------------------|--2-2-2-2-2-2-2-2-4-4-4-4-4-4-4-4-|
--4-4-4-4-4-4-4-4-4-4-4-4-4-4-4-4-|----------------------------------|


                                                                      
----------------------------------|----------------------------------|
----------------------------------|----------------------------------|
----------------------------------|----------------------------------|
--6-6-6-6-6-6-6-6-6-6-6-6-6-6-6-6-|--4-4-4-4-4-4-4-4-4-4-4-4-4-4-4-4-|
----------------------------------|----------------------------------|


                                                                      
----------------------------------|----------------------------------|
----------------------------------|----------------------------------|
----------------------------------|----------------------------------|
----------------------------------|--2-2-2-2-2-2-2-2-4-4-4-4-4-4-4-4-|
--4-4-4-4-4-4-4-4-4-4-4-4-4-4-4-4-|----------------------------------|


                                                                      
----------------------------------|----------------------------------|
----------------------------------|----------------------------------|
----------------------------------|----------------------------------|
--6-6-6-6-6-6-6-6-6-6-6-6-6-6-6-6-|--4-4-4-4-4-4-4-4-4-4-4-4-4-4-4-4-|
----------------------------------|----------------------------------|


                                                                      
----------------------------------|----------------------------------|
----------------------------------|----------------------------------|
----------------------------------|----------------------------------|
----------------------------------|--2-2-2-2-2-2-2-2-4-4-4-4-4-4-4-4-|
--4-4-4-4-4-4-4-4-4-4-4-4-4-4-4-4-|----------------------------------|


                                                                  
---------------------|---------------------|---------------------|
---------------------|---------------------|---------------------|
-----------4---------|-----------4----6----|-----------4---------|
--6-------------4----|--6------------------|--6-------------4----|
---------------------|---------------------|---------------------|


                                                                 
--------------------|---------------------|---------------------|
--------------------|---------------------|---------------------|
--------------------|-----------4---------|-----------4----6----|
--6-----------------|--6-------------4----|--6------------------|
-----------6--------|---------------------|---------------------|


                                                                        
---------------------|--------------------|----------------------------|
---------------------|--------------------|----------------------------|
-----------4---------|--------------------|----------------------------|
--6-------------4----|--6-----------------|--6----6-6-6-6-6----6-6-6-6-|
---------------------|-----------6--------|----------------------------|


                                                                            
-------------------------|----------------------------|--------------------|
-------------------------|----------------------------|--------------------|
--------------------3----|--4----4-4-4-4-4----4-4-4-4-|--3----4------------|
--6----6-6-6-6-4---------|----------------------------|--------------------|
-------------------------|----------------------------|--------------------|


                                                       
----------------------------|-------------------------|
----------------------------|-------------------------|
----------------------------|--------------------3----|
--6----6-6-6-6-6----6-6-6-6-|--6----6-6-6-6-4---------|
----------------------------|-------------------------|


                                                                               
----------------------------|--------------------|----------------------------|
----------------------------|--------------------|----------------------------|
--4----4-4-4-4-4----4-4-4-4-|--3----4------------|----------------------------|
----------------------------|--------------------|--6----6-6-6-6-6----6-6-6-6-|
----------------------------|--------------------|----------------------------|


                                                                            
-------------------------|----------------------------|--------------------|
-------------------------|----------------------------|--------------------|
--------------------3----|--4----4-4-4-4-4----4-4-4-4-|--3----4------------|
--6----6-6-6-6-4---------|----------------------------|--------------------|
-------------------------|----------------------------|--------------------|


                                                       
----------------------------|-------------------------|
----------------------------|-------------------------|
----------------------------|--------------------3----|
--6----6-6-6-6-6----6-6-6-6-|--6----6-6-6-6-4---------|
----------------------------|-------------------------|


                                                                             
----------------------------|--------------------|--------------------------|
----------------------------|--------------------|--------------------------|
--4----4-4-4-4-4----4-4-4-4-|--3----4------------|--------------------------|
----------------------------|--------------------|--1--1--1--1--1--1--1--1--|
----------------------------|--------------------|--------------------------|


                                                      
--------------------------|--------------------------|
--------------------------|--------------------------|
--------------------------|--------------------------|
--1--1--1--1--1--1--1--1--|--1--1--1--1--1--1--1--1--|
--------------------------|--------------------------|


                                                      
--------------------------|--------------------------|
--------------------------|--------------------------|
--------------6--6--6--6--|--------------------------|
--------------------------|--1--1--1--1--1--1--1--1--|
--4--4--4--4--------------|--------------------------|


                                                      
--------------------------|--------------------------|
--------------------------|--------------------------|
--------------------------|--------------------------|
--1--1--1--1--1--1--1--1--|--1--1--1--1--1--1--1--1--|
--------------------------|--------------------------|


                                                              
--------------------------|----------------------------------|
--------------------------|----------------------------------|
--------------6--6--6--6/-|--1-1-1-1-1-1-1-1-1-1-1-1-1-1-1-1-|
--------------------------|----------------------------------|
--4--4--4--4--------------|----------------------------------|


                                                                      
----------------------------------|----------------------------------|
----------------------------------|----------------------------------|
--1-1-1-1-1-1-1-1-1-1-1-1-1-1-1-1-|--4-4-4-4-4-4-4-4-4-4-4-4-4-4-4-4-|
----------------------------------|----------------------------------|
----------------------------------|----------------------------------|


                                                                      
----------------------------------|----------------------------------|
----------------------------------|----------------------------------|
----------------------------------|--1-1-1-1-1-1-1-1-1-1-1-1-1-1-1-1-|
--4-4-4-4-4-4-4-4-2-2-2-2-2-2-2-2-|----------------------------------|
----------------------------------|----------------------------------|


                                                                      
----------------------------------|----------------------------------|
----------------------------------|----------------------------------|
--1-1-1-1-1-1-1-1-1-1-1-1-1-1-1-1-|--4-4-4-4-4-4-4-4-4-4-4-4-4-4-4-4-|
----------------------------------|----------------------------------|
----------------------------------|----------------------------------|


                                                                              
----------------------------------|--------------------|---------------------|
----------------------------------|--------------------|---------------------|
----------------------------------|--4-----------------|---------------------|
--4-4-4-4-4-4-4-4-2-2-2-2-2-2-2-2-|-----------2--------|--4--------2----4----|
----------------------------------|--------------------|---------------------|


                                                                
--------------------|---------------------|--------------------|
--------------------|---------------------|--------------------|
--4-----------------|---------------------|--4-----------------|
-----------2--------|--4--------2----4----|-----------2--------|
--------------------|---------------------|--------------------|


                                                                 
---------------------|--------------------|---------------------|
---------------------|--------------------|---------------------|
---------------------|--4-----------------|---------------------|
--4--------2----4----|-----------2--------|--4--------2----4----|
---------------------|--------------------|---------------------|


                                                                      
----------------------------------|----------------------------------|
----------------------------------|----------------------------------|
----------------------------------|----------------------------------|
--6-6-6-6-6-6-6-6-6-6-6-6-6-6-6-6-|--4-4-4-4-4-4-4-4-4-4-4-4-4-4-4-4-|
----------------------------------|----------------------------------|


                                                                      
----------------------------------|----------------------------------|
----------------------------------|----------------------------------|
----------------------------------|----------------------------------|
----------------------------------|--2-2-2-2-2-2-2-2-4-4-4-4-4-4-4-4-|
--4-4-4-4-4-4-4-4-4-4-4-4-4-4-4-4-|----------------------------------|

[ Tab from: http://www.guitartabs.cc/tabs/b/blind_guardian/mirror_mirror_btab.html ]
                                                                      
----------------------------------|----------------------------------|
----------------------------------|----------------------------------|
----------------------------------|----------------------------------|
--6-6-6-6-6-6-6-6-6-6-6-6-6-6-6-6-|--4-4-4-4-4-4-4-4-4-4-4-4-4-4-4-4-|
----------------------------------|----------------------------------|


                                                                      
----------------------------------|----------------------------------|
----------------------------------|----------------------------------|
----------------------------------|----------------------------------|
----------------------------------|--2-2-2-2-2-2-2-2-4-4-4-4-4-4-4-4-|
--4-4-4-4-4-4-4-4-4-4-4-4-4-4-4-4-|----------------------------------|


                                                                      
----------------------------------|----------------------------------|
----------------------------------|----------------------------------|
----------------------------------|----------------------------------|
--6-6-6-6-6-6-6-6-6-6-6-6-6-6-6-6-|--4-4-4-4-4-4-4-4-4-4-4-4-4-4-4-4-|
----------------------------------|----------------------------------|


                                                                      
----------------------------------|----------------------------------|
----------------------------------|----------------------------------|
----------------------------------|----------------------------------|
----------------------------------|--2-2-2-2-2-2-2-2-4-4-4-4-4-4-4-4-|
--4-4-4-4-4-4-4-4-4-4-4-4-4-4-4-4-|----------------------------------|


                                                                      
----------------------------------|----------------------------------|
----------------------------------|----------------------------------|
----------------------------------|----------------------------------|
--6-6-6-6-6-6-6-6-6-6-6-6-6-6-6-6-|--4-4-4-4-4-4-4-4-4-4-4-4-4-4-4-4-|
----------------------------------|----------------------------------|


                                                                      
----------------------------------|----------------------------------|
----------------------------------|----------------------------------|
----------------------------------|----------------------------------|
----------------------------------|--2-2-2-2-2-2-2-2-4-4-4-4-4-4-4-4-|
--4-4-4-4-4-4-4-4-4-4-4-4-4-4-4-4-|----------------------------------|


                                                                       
-----------------------|----------------------|-----------------------|
-----------------------|----------------------|-------------6----6----|
-------------8----8----|--6--------6----------|-----------------------|
--6----6--6------------|--------------9--8----|--6----6--6------------|
-----------------------|----------------------|-----------------------|


                                                                      
----------------------|-----------------------|----------------------|
--5-------------------|-----------------------|----------------------|
-----------8--6-------|-------------8----8----|--6--------6----------|
-----------------9----|--6----6--6------------|--------------9--8----|
----------------------|-----------------------|----------------------|


                                                                         
-----------------------|----------------------|-------------------------|
-------------6----6----|--5-------------------|-------------------------|
-----------------------|-----------8--6-------|-------------------------|
--6----6--6------------|-----------------9----|--6--6--6--6--6----6--6--|
-----------------------|----------------------|-------------------------|


                                                                  
------------------|-------------------------|--------------------|
------------------|-------------------------|--------------------|
------------------|-------------------------|--------------------|
------------------|--6--6--6--6--6----6--6--|--------------16/---|
------------------|-------------------------|--------------------|


                                                                           
------------------------|------------------------|------------------------|
------------------------|------------------------|------------------------|
------------------------|------------------------|------------------------|
--4----4--4--4----4--4/-|--2----2--2--2----2--2--|--4----4--4--4----4--4/-|
------------------------|------------------------|------------------------|


                                                                             
------------------------|-------------------------|-------------------------|
------------------------|-------------------------|-------------------------|
------------------------|-------------------------|-------------------------|
--2----2--2--2----2--2--|--6----6-6-6-6-6----4----|--6----6-6-6-6-6----6----|
------------------------|-------------------------|-------------------------|


                                                    
-------------------------|-------------------------|
-------------------------|-------------------------|
-------------------------|-------------------------|
--6----6-6-6-6-6----4----|--6----6-6-6-6-6----6----|
-------------------------|-------------------------|


                                                                      
----------------------------------|----------------------------------|
----------------------------------|----------------------------------|
--7-7-7-7-7-7-7-7-7-7-7-7-6-6-6-6-|--7-7-7-7-7-7-7-7-7-7-7-7-9-9-9-9-|
----------------------------------|----------------------------------|
----------------------------------|----------------------------------|


                                                                      
----------------------------------|----------------------------------|
----------------------------------|----------------------------------|
--7-7-7-7-7-7-7-7-7-7-7-7-6-6-6-6-|--7-7-7-7-7-7-7-7-7-7-7-7-9-9-9-9-|
----------------------------------|----------------------------------|
----------------------------------|----------------------------------|


                                                      
--------------------------|--------------------------|
--------------------------|--------------------------|
--------------------------|--------------------------|
--4--4--4--4--4--4--4--4--|--0--0--0--0--0--0--0--0--|
--------------------------|--------------------------|


                                                                               
--------------------------|--------------------------|------------------------|
--------------------------|--------------------------|------------------------|
--2--2--2--2--4--4--4--4--|--------------------------|------------------------|
--------------------------|--4--4--4--4--4--4--4--4--|--4----4--4--4----4--4--|
--------------------------|--------------------------|------------------------|


                                                                               
------------------------|--------------------------|--------------------------|
------------------------|--------------------------|--------------------------|
------------------------|--2--2--2--2--4--4--4--4--|--------------------------|
--0----0--0--0----0--0--|--------------------------|--4--4--4--4--4--4--4--4--|
------------------------|--------------------------|--------------------------|


                                                                      
----------------------------------|----------------------------------|
----------------------------------|----------------------------------|
--2-2-2-2-2-2-2-2-2-2-2-2-2-2-2-2-|----------------------------------|
----------------------------------|--0-0-0-0-0-0-0-0-0-0-0-0-0-0-0-0-|
----------------------------------|----------------------------------|


                                                                      
----------------------------------|----------------------------------|
----------------------------------|----------------------------------|
--2-2-2-2-2-2-2-2-2-2-2-2-2-2-2-2-|----------------------------------|
----------------------------------|--2-2-2-2-2-2-2-2-2-2-2-2-2-2-2-2-|
----------------------------------|----------------------------------|


                                                                      
----------------------------------|----------------------------------|
----------------------------------|----------------------------------|
--2-2-2-2-2-2-2-2-2-2-2-2-2-2-2-2-|----------------------------------|
----------------------------------|--0-0-0-0-0-0-0-0-0-0-0-0-0-0-0-0-|
----------------------------------|----------------------------------|


                                                                      
----------------------------------|----------------------------------|
----------------------------------|----------------------------------|
--2-2-2-2-2-2-2-2-2-2-2-2-2-2-2-2-|----------------------------------|
----------------------------------|--2-2-2-2-2-2-2-2-2-2-2-2-2-2-2-2-|
----------------------------------|----------------------------------|


                                                                              
-------------------------|-------------------------|-------------------------|
-------------------------|-------------------------|-------------------------|
-------------------------|--------------------1----|--2--2--2--2--2--2-------|
--4--4--4--4--4--4--2----|--0--0--0--0--0--0-------|--------------------4----|
-------------------------|-------------------------|-------------------------|


                                                                                
--------------------------|-------------------------|--------------------------|
--------------------------|-------------------------|--------------------------|
--------------------------|-------------------------|--------------------------|
--2--2--2--2--2--2--2--2--|--4--4--4--4--4--4--2/---|--0--0--0--0--0--0--0--0--|
--------------------------|-------------------------|--------------------------|


                                                     
-------------------------|--------------------------|
-------------------------|--------------------------|
--2--2--2--2--2--2-------|--------------------------|
--------------------4----|--2--2--7--4--6--2--4--0--|
-------------------------|--------------------------|


                                                                      
----------------------------------|----------------------------------|
----------------------------------|----------------------------------|
--2-2-2-2-2-2-2-2-----------------|----------------------------------|
------------------0-0-0-0-0-0-0-0-|--2-2-2-2-2-2-2-2-0-0-0-0-2-2-2-2-|
----------------------------------|----------------------------------|


                                                                      
----------------------------------|----------------------------------|
----------------------------------|----------------------------------|
--2-2-2-2-2-2-2-2-----------------|----------------------------------|
------------------0-0-0-0-0-0-0-0-|--2-2-2-2-2-2-2-2-0-0-0-0-2-2-2-2-|
----------------------------------|----------------------------------|


                                                                      
----------------------------------|----------------------------------|
----------------------------------|----------------------------------|
--2-2-2-2-2-2-2-2-----------------|----------------------------------|
------------------0-0-0-0-0-0-0-0-|--2-2-2-2-2-2-2-2-0-0-0-0-2-2-2-2-|
----------------------------------|----------------------------------|


                                                                      
----------------------------------|----------------------------------|
----------------------------------|----------------------------------|
--2-2-2-2-2-2-2-2-----------------|----------------------------------|
------------------0-0-0-0-0-0-0-0-|--2-2-2-2-2-2-2-2-0-0-0-0-2-2-2-2-|
----------------------------------|----------------------------------|


                                                                      
----------------------------------|----------------------------------|
----------------------------------|----------------------------------|
----------------------------------|----------------------------------|
------------------2-2-2-2-2-2-2-2-|--4-4-4-4-4-4-4-4-2-2-2-2-4-4-4-4-|
--2-2-2-2-2-2-2-2-----------------|----------------------------------|


                                                                      
----------------------------------|----------------------------------|
----------------------------------|----------------------------------|
----------------------------------|----------------------------------|
------------------2-2-2-2-2-2-2-2-|--4-4-4-4-4-4-4-4-2-2-2-2-4-4-4-4-|
--2-2-2-2-2-2-2-2-----------------|----------------------------------|


                                                                      
----------------------------------|----------------------------------|
----------------------------------|----------------------------------|
----------------------------------|----------------------------------|
------------------2-2-2-2-2-2-2-2-|--4-4-4-4-4-4-4-4-2-2-2-2-4-4-4-4-|
--2-2-2-2-2-2-2-2-----------------|----------------------------------|


                                                                      
----------------------------------|----------------------------------|
----------------------------------|----------------------------------|
----------------------------------|----------------------------------|
------------------2-2-2-2-2-2-2-2-|--4-4-4-4-4-4-4-4-2-2-2-2-4-4-4-4-|
--2-2-2-2-2-2-2-2-----------------|----------------------------------|


                                                                      
----------------------------------|----------------------------------|
----------------------------------|----------------------------------|
----------------------------------|----------------------------------|
--6-6-6-6-6-6-6-6-6-6-6-6-6-6-6-6-|--4-4-4-4-4-4-4-4-4-4-4-4-4-4-4-4-|
----------------------------------|----------------------------------|


                                                                      
----------------------------------|----------------------------------|
----------------------------------|----------------------------------|
----------------------------------|----------------------------------|
----------------------------------|--2-2-2-2-2-2-2-2-4-4-4-4-4-4-4-4-|
--4-4-4-4-4-4-4-4-4-4-4-4-4-4-4-4-|----------------------------------|


                                                                      
----------------------------------|----------------------------------|
----------------------------------|----------------------------------|
----------------------------------|----------------------------------|
--6-6-6-6-6-6-6-6-6-6-6-6-6-6-6-6-|--4-4-4-4-4-4-4-4-4-4-4-4-4-4-4-4-|
----------------------------------|----------------------------------|


                                                                      
----------------------------------|----------------------------------|
----------------------------------|----------------------------------|
----------------------------------|----------------------------------|
----------------------------------|--2-2-2-2-2-2-2-2-4-4-4-4-4-4-4-4-|
--4-4-4-4-4-4-4-4-4-4-4-4-4-4-4-4-|----------------------------------|


                                                                      
----------------------------------|----------------------------------|
----------------------------------|----------------------------------|
----------------------------------|----------------------------------|
--6-6-6-6-6-6-6-6-6-6-6-6-6-6-6-6-|--4-4-4-4-4-4-4-4-4-4-4-4-4-4-4-4-|
----------------------------------|----------------------------------|


                                                                      
----------------------------------|----------------------------------|
----------------------------------|----------------------------------|
----------------------------------|----------------------------------|
----------------------------------|--2-2-2-2-2-2-2-2-4-4-4-4-4-4-4-4-|
--4-4-4-4-4-4-4-4-4-4-4-4-4-4-4-4-|----------------------------------|


                                                                      
----------------------------------|----------------------------------|
----------------------------------|----------------------------------|
----------------------------------|----------------------------------|
--6-6-6-6-6-6-6-6-6-6-6-6-6-6-6-6-|--4-4-4-4-4-4-4-4-4-4-4-4-4-4-4-4-|
----------------------------------|----------------------------------|


                                                                      
----------------------------------|----------------------------------|
----------------------------------|----------------------------------|
----------------------------------|----------------------------------|
----------------------------------|--2-2-2-2-2-2-2-2-4-4-4-4-4-4-4-4-|
--4-4-4-4-4-4-4-4-4-4-4-4-4-4-4-4-|----------------------------------|


                                                      
--------------------------|--------------------------|
--------------------------|--------------------------|
--------------------------|--------------------------|
--6----6-6-6-6-6----6--6--|--2----2-2-2-2-2----2--2--|
--------------------------|--------------------------|


                                                                               
--------------------------|------------------------|--------------------------|
--------------------------|------------------------|--------------------------|
--------------------------|------------------------|--------------------------|
--6----6-6-6-6-6----6--6--|--4----4-4-4-4-4--------|--6----6-6-6-6-6----6--6--|
--------------------------|------------------------|--------------------------|


                                                                               
--------------------------|--------------------------|------------------------|
--------------------------|--------------------------|------------------------|
--------------------------|--------------------------|------------------------|
--2----2-2-2-2-2----2--2--|--6----6-6-6-6-6----6--6--|--4----4-4-4-4-4--------|
--------------------------|--------------------------|------------------------|


                                                                                
-------------------|-------------------|-------------------|-------------------|
-------------------|-------------------|-------------------|-------------------|
-------------------|-------------------|-------------------|-------------------|
--6----------------|--2----------------|--6----------------|--4----------------|
-------------------|-------------------|-------------------|-------------------|


                                                                              
-------------------|-------------------|------------------|------------------|
-------------------|-------------------|------------------|------------------|
-------------------|-------------------|------------------|------------------|
--6----------------|--2----------------|------------------|------------------|
-------------------|-------------------|------------------|------------------|


                                                          
-----------------------|---------------------|----------||
-----------------------|---------------------|----------||
-----------------------|---------------------|----------||
--6----6--6--6----4----|--2----4----6--------|----------||
-----------------------|---------------------|----------||
Comments