Blind Guardian - Majesty Chords & Tabs

 

Majesty Chords & Tabs

Blind Guardian Chords & Tabs

Version: 1 Type: Bass Tab 0 ratings
1 star 2 stars 3 stars 4 stars 5 stars
comments

Majesty Bass Tab

Tune Down

F#||--------------------|------------------|------------------|
C#||--------------------|------------------|------------------|
G#||--------------------|------------------|------------------|
D#||--------------------|------------------|------------------|


                                                                            
------------------|------------------|------------------|------------------|
------------------|------------------|------------------|------------------|
------------------|------------------|------------------|------------------|
------------------|------------------|------------------|------------------|


                                                                         
-----------------|-----------------|-----------------|------------------|
-----------------|-----------------|-----------------|------------------|
-----------------|-----------------|-----------------|---------------5--|
-----------------|-----------------|-----------------|------------------|


                                                                                
-------------------|-------------------|-------------------|-------------------|
-------------------|-------------------|-------------------|-------------------|
--4-------------5--|--4-------------5--|--4-------------5--|--4-------------5--|
-------------------|-------------------|-------------------|-------------------|


                                                              
----------------------------------|--------------------------|
----------------------------------|--------------------------|
--4-4-4-4-4-4-4-4-4-4-4-4-4-4-4-4-|--4-4--5---4--7--5--4--5--|
----------------------------------|--------------------------|


                                                              
----------------------------------|--------------------------|
----------------------------------|--------------------------|
--4-4-4-4-4-4-4-4-4-4-4-4-4-4-4-4-|--4-4--5---4--7--5--4--5--|
----------------------------------|--------------------------|


                                                              
----------------------------------|--------------------------|
----------------------------------|--------------------------|
--4-4-4-4-4-4-4-4-4-4-4-4-4-4-4-4-|--4-4--5---4--7--5--4--5--|
----------------------------------|--------------------------|


                                                              
----------------------------------|--------------------------|
----------------------------------|--------------------------|
--4-4-4-4-4-4-4-4-4-4-4-4-4-4-4-4-|--4-4--5---4--5--4--5--7--|
----------------------------------|--------------------------|


                                                              
----------------------------------|--------------------------|
----------------------------------|--------------------------|
--4-4-4-4-4-4-4-4-4-4-4-4-4-4-4-4-|--4-4--5---4--7--5--4--5--|
----------------------------------|--------------------------|


                                                              
----------------------------------|--------------------------|
----------------------------------|--------------------------|
--4-4-4-4-4-4-4-4-4-4-4-4-4-4-4-4-|--4-4--5---4--7--5--4--5--|
----------------------------------|--------------------------|


                                                              
----------------------------------|--------------------------|
----------------------------------|--------------------------|
--4-4-4-4-4-4-4-4-4-4-4-4-4-4-4-4-|--4-4--5---4--7--5--4--5--|
----------------------------------|--------------------------|


                                                              
----------------------------------|--------------------------|
----------------------------------|--------------------------|
--4-4-4-4-4-4-4-4-4-4-4-4-4-4-4-4-|--4-4--5---4--5--4--5--7--|
----------------------------------|--------------------------|


                                                              
--6------------7----6----4----|--6------------7----6----9----|
------------------------------|------------------------------|
------------------------------|------------------------------|
------------------------------|------------------------------|


                                                              
--6------------7----6----4----|--6------------7----6----9----|
------------------------------|------------------------------|
------------------------------|------------------------------|
------------------------------|------------------------------|


                                                                     
--11------------12----11----9----|--11------------12----11----14----|
---------------------------------|----------------------------------|
---------------------------------|----------------------------------|
---------------------------------|----------------------------------|


                                                                     
--11------------12----11----9----|--11------------12----11----14----|
---------------------------------|----------------------------------|
---------------------------------|----------------------------------|
---------------------------------|----------------------------------|


                                                                        
-------------------|------------------|--------------------------------|
-------------------|------------------|--6-----------6--6--------------|
--0----------------|------------------|----4-4-4-4-4-------4-4-4-4-4-4-|
-------------------|------------------|--------------------------------|


                                                                  
--------------------------------|--------------------------------|
--2-----------2--2--------------|--------------------------------|
----0-0-0-0-0-------0-0-0-0-0-0-|--6-----------6--6--------------|
--------------------------------|----4-4-4-4-4-------4-4-4-4-4-4-|


                                                         
-----------------------|--------------------------------|
------6----4--6--------|--6-----------6--6--------------|
-----------------------|----4-4-4-4-4-------4-4-4-4-4-4-|
--4-4------------------|--------------------------------|


                                                                  
--------------------------------|--------------------------------|
--2-----------2--2--------------|--------------------------------|
----0-0-0-0-0-------0-0-0-0-0-0-|--6-----------6--6--------------|
--------------------------------|----4-4-4-4-4-------4-4-4-4-4-4-|


                                                         
-----------------------|--------------------------------|
------6----4--6--------|--6-----------6--6--------------|
-----------------------|----4-4-4-4-4-------4-4-4-4-4-4-|
--4-4------------------|--------------------------------|


                                                                  
--------------------------------|--------------------------------|
--2-----------2--2--------------|--------------------------------|
----0-0-0-0-0-------0-0-0-0-0-0-|--6-----------6--6--------------|
--------------------------------|----4-4-4-4-4-------4-4-4-4-4-4-|


                                                         
-----------------------|--------------------------------|
------6----4--6--------|--6-----------6--6--------------|
-----------------------|----4-4-4-4-4-------4-4-4-4-4-4-|
--4-4------------------|--------------------------------|


                                                                  
--------------------------------|--------------------------------|
--2-----------2--2--------------|--------------------------------|
----0-0-0-0-0-------0-0-0-0-0-0-|--6-----------6--6--------------|
--------------------------------|----4-4-4-4-4-------4-4-4-4-4-4-|


                                                         
-----------------------|--------------------------------|
------6----4--6--------|--6-----------6--6--------------|
-----------------------|----4-4-4-4-4-------4-4-4-4-4-4-|
--4-4------------------|--------------------------------|


                                                                  
--------------------------------|--------------------------------|
--2-----------2--2--------------|--------------------------------|
----0-0-0-0-0-------0-0-0-0-0-0-|--6-----------6--6--------------|
--------------------------------|----4-4-4-4-4-------4-4-4-4-4-4-|


                                                         
-----------------------|--------------------------------|
------6----4--6--------|--6-----------6--6--------------|
-----------------------|----4-4-4-4-4-------4-4-4-4-4-4-|
--4-4------------------|--------------------------------|


                                                                  
--------------------------------|--------------------------------|
--2-----------2--2--------------|--------------------------------|
----0-0-0-0-0-------0-0-0-0-0-0-|--6-----------6--6--------------|
--------------------------------|----4-4-4-4-4-------4-4-4-4-4-4-|


                                                         
-----------------------|--------------------------------|
------6----4--6--------|--6-----------6--6--------------|
-----------------------|----4-4-4-4-4-------4-4-4-4-4-4-|
--4-4------------------|--------------------------------|


                                                                  
--------------------------------|--------------------------------|
--2-----------2--2--------------|--------------------------------|
----0-0-0-0-0-------0-0-0-0-0-0-|--6-----------6--6--------------|
--------------------------------|----4-4-4-4-4-------4-4-4-4-4-4-|


                                                         
-----------------------|--------------------------------|
------6----4--6--------|--6-----------6--6--------------|
-----------------------|----4-4-4-4-4-------4-4-4-4-4-4-|
--4-4------------------|--------------------------------|


                                                                  
--------------------------------|--------------------------------|
--2-----------2--2--------------|--------------------------------|
----0-0-0-0-0-------0-0-0-0-0-0-|--6-----------6--6--------------|
--------------------------------|----4-4-4-4-4-------4-4-4-4-4-4-|


                                                                  
-----------------------|--------------------|--------------------|
------6----4--6--------|--6--------2--------|--4-----------------|
-----------------------|--------------------|-----------6--------|
--4-4------------------|--------------------|--------------------|


                                                                     
--------------------|--------------------|--------------------------|
--6--------2--------|--4-----------------|--6--6--6--6--2--2--2--2--|
--------------------|-----------6--------|--------------------------|
--------------------|--------------------|--------------------------|


                                                      
--------------------------|--------------------------|
--4--4--4--4--------------|--6--6--6--6--2--2--2--2--|
--------------6--6--6--6--|--------------------------|
--------------------------|--------------------------|


                                                                        
--------------------------|-------------------|--4---------------------|
--4--4--4--4--------------|--6----------------|-----6--4---------------|
--------------6--6--6--6--|-------------------|-----------7--6--4~-----|
--------------------------|-------------------|------------------------|


                                                            
-------------------|-------------------|-------------------|
--2----------------|----------4--------|--6----------------|
-------------------|-------------------|-------------------|
-------------------|-------------------|-------------------|


                                                                  
------------------------|-------------------|--------------------|
------------------------|--2----------------|-----------4--------|
-----4--5--7--5--4~-----|-------------------|--6-----------------|
--7---------------------|-------------------|--------------------|


                                                       
-----------------------------|------------------------|
--6--------------------------|--4--4--6--7--6--4------|
-----4-4-4--4-4-4--4-4-4--4--|------------------------|
-----------------------------|------------------------|


                                                          
-------------------------------|-------------------------|
--2----------------------------|---------------2----4----|
-----0-0-0--0-0-0--0-0-0-0-0-0-|--0--0-0-0--0------------|
-------------------------------|-------------------------|


                                                                           
-----------------------------|------------------------|-------------------|
--6--------------------------|--6--6--7--9--7--6------|--2----------------|
-----4-4-4--4-4-4--4-4-4--4--|------------------------|-------------------|
-----------------------------|------------------------|-------------------|


                                                                  
--------------------|-------------------|------------------------|
-----------4--------|-------------------|--7--5--4----------2----|
--6-----------------|--4----------------|-----------7----4-------|
--------------------|-------------------|------------------------|


                                                                 
-------------------|------------------------|-------------------|
-------------------|--7--5--4----------2----|-------------------|
--4----------------|-----------7----4-------|--4----------------|
-------------------|------------------------|-------------------|


                                                                      
------------------------|-------------------|--7--5--4--5----6--7----|
--7--5--4----------2----|-------------------|------------------------|
-----------7----4-------|--4----------------|------------------------|
------------------------|-------------------|------------------------|


                                                      
--------------------------|--------------------------|
--6--6--6--6--6--6--6--6--|--6--6--6--6--6--6--6--6--|
--------------------------|--------------------------|
--------------------------|--------------------------|


                                                      
--------------------------|--------------------------|
--2--2--2--2--2--2--2--2--|--2--2--2--2--2--2--2--2--|
--------------------------|--------------------------|
--------------------------|--------------------------|


                                                      
--------------------------|--------------------------|
--------------------------|--------------------------|
--6--6--6--6--6--6--6--6--|--6--6--6--6--6--6--6--6--|
--------------------------|--------------------------|


                                                      
--------------------------|--------------------------|
--------------------------|--------------------------|
--2--2--2--2--2--2--2--2--|--2--2--2--2--2--2--2--2--|
--------------------------|--------------------------|


                                                                      
----------------------------------|----------------------------------|
--6-------------------------------|----------------------------------|
----4-4-4-4-4-4-4-4-4-4-4-4-4-4-4-|--4-4-4-4-4-4-4-4-4-4-4-4-4-4-4-4-|
----------------------------------|----------------------------------|


                                                                      
----------------------------------|----------------------------------|
--4-------------------------------|--4-----------4-----------4-------|
----2-2-2-2-2-2-2-2-2-2-2-2-2-2-2-|----2-2-2-2-2---2-2-2-2-2---2-2-2-|
----------------------------------|----------------------------------|


                                                                
-------------------------------|-------------------------------|
--2-----------2--2----------2--|--2-----------2--2----------2--|
----0-0-0-0-0-------0-0-0-0----|----0-0-0-0-0-------0-0-0-0----|
-------------------------------|-------------------------------|


                                                                      
----------------------------------|----------------------------------|
----------------------------------|--2---------------4---------------|
--6-------------------------------|----0-0-0-0-0-0-0---2-2-2-2-2-2-2-|
----4-4-4-4-4-4-4-4-4-4-4-4-4-4-4-|----------------------------------|


                                                                      
----------------------------------|----------------------------------|
--6-------------------------------|----------------------------------|
----4-4-4-4-4-4-4-4-4-4-4-4-4-4-4-|--4-4-4-4-4-4-4-4-4-4-4-4-4-4-4-4-|
----------------------------------|----------------------------------|


                                                                      
----------------------------------|----------------------------------|
--4-------------------------------|--4-----------4-----------4-------|
----2-2-2-2-2-2-2-2-2-2-2-2-2-2-2-|----2-2-2-2-2---2-2-2-2-2---2-2-2-|
----------------------------------|----------------------------------|


                                                                
-------------------------------|-------------------------------|
--2-----------2--2----------2--|--2-----------2--2----------2--|
----0-0-0-0-0-------0-0-0-0----|----0-0-0-0-0-------0-0-0-0----|
-------------------------------|-------------------------------|


                                                                      
----------------------------------|----------------------------------|
----------------------------------|--2---------------4---------------|
--6-------------------------------|----0-0-0-0-0-0-0---2-2-2-2-2-2-2-|
----4-4-4-4-4-4-4-4-4-4-4-4-4-4-4-|----------------------------------|


                                                                      
----------------------------------|----------------------------------|
--6-------------------------------|----------------------------------|
----4-4-4-4-4-4-4-4-4-4-4-4-4-4-4-|--4-4-4-4-4-4-4-4-4-4-4-4-4-4-4-4-|
----------------------------------|----------------------------------|


                                                                      
----------------------------------|----------------------------------|
--4-------------------------------|--4-----------4-----------4-------|
----2-2-2-2-2-2-2-2-2-2-2-2-2-2-2-|----2-2-2-2-2---2-2-2-2-2---2-2-2-|
----------------------------------|----------------------------------|


                                                                
-------------------------------|-------------------------------|
--2-----------2--2----------2--|--2-----------2--2----------2--|
----0-0-0-0-0-------0-0-0-0----|----0-0-0-0-0-------0-0-0-0----|
-------------------------------|-------------------------------|


                                                                      
----------------------------------|----------------------------------|
----------------------------------|--2---------------4---------------|
--6-------------------------------|----0-0-0-0-0-0-0---2-2-2-2-2-2-2-|
----4-4-4-4-4-4-4-4-4-4-4-4-4-4-4-|----------------------------------|


                                                                      
----------------------------------|----------------------------------|
--6-------------------------------|----------------------------------|
----4-4-4-4-4-4-4-4-4-4-4-4-4-4-4-|--4-4-4-4-4-4-4-4-4-4-4-4-4-4-4-4-|
----------------------------------|----------------------------------|


                                                                      
----------------------------------|----------------------------------|
--4-------------------------------|--4-----------4-----------4-------|
----2-2-2-2-2-2-2-2-2-2-2-2-2-2-2-|----2-2-2-2-2---2-2-2-2-2---2-2-2-|
----------------------------------|----------------------------------|


                                                                
-------------------------------|-------------------------------|
--2-----------2--2----------2--|--2-----------2--2----------2--|
----0-0-0-0-0-------0-0-0-0----|----0-0-0-0-0-------0-0-0-0----|
-------------------------------|-------------------------------|


                                                                      
----------------------------------|----------------------------------|
----------------------------------|--2---------------4---------------|
--6-------------------------------|----0-0-0-0-0-0-0---2-2-2-2-2-2-2-|
----4-4-4-4-4-4-4-4-4-4-4-4-4-4-4-|----------------------------------|


                                                                      
----------------------------------|----------------------------------|
--6-------------------------------|----------------------------------|
----4-4-4-4-4-4-4-4-4-4-4-4-4-4-4-|--4-4-4-4-4-4-4-4-4-4-4-4-4-4-4-4-|
----------------------------------|----------------------------------|


                                                                      
----------------------------------|----------------------------------|
--4-------------------------------|--4-----------4-----------4-------|
----2-2-2-2-2-2-2-2-2-2-2-2-2-2-2-|----2-2-2-2-2---2-2-2-2-2---2-2-2-|
----------------------------------|----------------------------------|

[ Tab from: http://www.guitartabs.cc/tabs/b/blind_guardian/majesty_btab.html ]
                                                                
-------------------------------|-------------------------------|
--2-----------2--2----------2--|--2-----------2--2----------2--|
----0-0-0-0-0-------0-0-0-0----|----0-0-0-0-0-------0-0-0-0----|
-------------------------------|-------------------------------|


                                                                      
----------------------------------|----------------------------------|
----------------------------------|--2---------------4---------------|
--6-------------------------------|----0-0-0-0-0-0-0---2-2-2-2-2-2-2-|
----4-4-4-4-4-4-4-4-4-4-4-4-4-4-4-|----------------------------------|


                                                                      
----------------------------------|----------------------------------|
--6-------------------------------|----------------------------------|
----4-4-4-4-4-4-4-4-4-4-4-4-4-4-4-|--4-4-4-4-4-4-4-4-4-4-4-4-4-4-4-4-|
----------------------------------|----------------------------------|


                                                                      
----------------------------------|----------------------------------|
--4-------------------------------|--4-----------4-----------4-------|
----2-2-2-2-2-2-2-2-2-2-2-2-2-2-2-|----2-2-2-2-2---2-2-2-2-2---2-2-2-|
----------------------------------|----------------------------------|


                                                                
-------------------------------|-------------------------------|
--2-----------2--2----------2--|--2-----------2--2----------2--|
----0-0-0-0-0-------0-0-0-0----|----0-0-0-0-0-------0-0-0-0----|
-------------------------------|-------------------------------|


                                                                      
----------------------------------|----------------------------------|
----------------------------------|--2---------------4---------------|
--6-------------------------------|----0-0-0-0-0-0-0---2-2-2-2-2-2-2-|
----4-4-4-4-4-4-4-4-4-4-4-4-4-4-4-|----------------------------------|


                                                                      
----------------------------------|----------------------------------|
--6-------------------------------|----------------------------------|
----4-4-4-4-4-4-4-4-4-4-4-4-4-4-4-|--4-4-4-4-4-4-4-4-4-4-4-4-4-4-4-4-|
----------------------------------|----------------------------------|


                                                                      
----------------------------------|----------------------------------|
--4-------------------------------|--4-----------4-----------4-------|
----2-2-2-2-2-2-2-2-2-2-2-2-2-2-2-|----2-2-2-2-2---2-2-2-2-2---2-2-2-|
----------------------------------|----------------------------------|


                                                                
-------------------------------|-------------------------------|
--2-----------2--2----------2--|--2-----------2--2----------2--|
----0-0-0-0-0-------0-0-0-0----|----0-0-0-0-0-------0-0-0-0----|
-------------------------------|-------------------------------|


                                                                      
----------------------------------|----------------------------------|
----------------------------------|--2---------------4---------------|
--6-------------------------------|----0-0-0-0-0-0-0---2-2-2-2-2-2-2-|
----4-4-4-4-4-4-4-4-4-4-4-4-4-4-4-|----------------------------------|


                                                                      
----------------------------------|----------------------------------|
--6-------------------------------|----------------------------------|
----4-4-4-4-4-4-4-4-4-4-4-4-4-4-4-|--4-4-4-4-4-4-4-4-4-4-4-4-4-4-4-4-|
----------------------------------|----------------------------------|


                                                                      
----------------------------------|----------------------------------|
--4-------------------------------|--4-----------4-----------4-------|
----2-2-2-2-2-2-2-2-2-2-2-2-2-2-2-|----2-2-2-2-2---2-2-2-2-2---2-2-2-|
----------------------------------|----------------------------------|


                                                                
-------------------------------|-------------------------------|
--2-----------2--2----------2--|--2-----------2--2----------2--|
----0-0-0-0-0-------0-0-0-0----|----0-0-0-0-0-------0-0-0-0----|
-------------------------------|-------------------------------|


                                                                      
----------------------------------|----------------------------------|
----------------------------------|--2---------------4---------------|
--6-------------------------------|----0-0-0-0-0-0-0---2-2-2-2-2-2-2-|
----4-4-4-4-4-4-4-4-4-4-4-4-4-4-4-|----------------------------------|


                                                                 
---------------------|--------------------|---------------------|
--6------------6--4--|--6--------2--------|--6------------6--4--|
---------------------|--------------------|---------------------|
---------------------|--------------------|---------------------|


                                                        
--------------------|----------------------------------|
--6--------2--------|--4-------------------------------|
--------------------|----2-2-2-2-2-2-2-2-2-2-2-2-2-2-2-|
--------------------|----------------------------------|


                                                                      
----------------------------------|----------------------------------|
--5-------------------------------|--6-------------------------------|
----3-3-3-3-3-3-3-3-3-3-3-3-3-3-3-|----4-4-4-4-4-4-4-4-4-4-4-4-4-4-4-|
----------------------------------|----------------------------------|


                                                                           
----------------------------------|-------------------|-------------------|
----------------------------------|--4----------------|--5----------------|
--4-4-4-4-4-4-4-4-4-4-4-4-4-4-4-4-|-------------------|-------------------|
----------------------------------|-------------------|-------------------|


                                                              
--6------------7----6----4----|--6------------7----6----9----|
------------------------------|------------------------------|
------------------------------|------------------------------|
------------------------------|------------------------------|


                                                              
--6------------7----6----4----|--6------------7----6----9----|
------------------------------|------------------------------|
------------------------------|------------------------------|
------------------------------|------------------------------|


                                                                     
--11------------12----11----9----|--11------------12----11----14----|
---------------------------------|----------------------------------|
---------------------------------|----------------------------------|
---------------------------------|----------------------------------|


                                                                     
--11------------12----11----9----|--11------------12----11----14----|
---------------------------------|----------------------------------|
---------------------------------|----------------------------------|
---------------------------------|----------------------------------|


                                                                        
-------------------|------------------|--------------------------------|
-------------------|------------------|--6-----------6--6--------------|
--0----------------|------------------|----4-4-4-4-4-------4-4-4-4-4-4-|
-------------------|------------------|--------------------------------|


                                                                  
--------------------------------|--------------------------------|
--2-----------2--2--------------|--------------------------------|
----0-0-0-0-0-------0-0-0-0-0-0-|--6-----------6--6--------------|
--------------------------------|----4-4-4-4-4-------4-4-4-4-4-4-|


                                                         
-----------------------|--------------------------------|
------6----4--6--------|--6-----------6--6--------------|
-----------------------|----4-4-4-4-4-------4-4-4-4-4-4-|
--4-4------------------|--------------------------------|


                                                                  
--------------------------------|--------------------------------|
--2-----------2--2--------------|--------------------------------|
----0-0-0-0-0-------0-0-0-0-0-0-|--6-----------6--6--------------|
--------------------------------|----4-4-4-4-4-------4-4-4-4-4-4-|


                                                         
-----------------------|--------------------------------|
------6----4--6--------|--6-----------6--6--------------|
-----------------------|----4-4-4-4-4-------4-4-4-4-4-4-|
--4-4------------------|--------------------------------|


                                                                  
--------------------------------|--------------------------------|
--2-----------2--2--------------|--------------------------------|
----0-0-0-0-0-------0-0-0-0-0-0-|--6-----------6--6--------------|
--------------------------------|----4-4-4-4-4-------4-4-4-4-4-4-|


                                                         
-----------------------|--------------------------------|
------6----4--6--------|--6-----------6--6--------------|
-----------------------|----4-4-4-4-4-------4-4-4-4-4-4-|
--4-4------------------|--------------------------------|


                                                                  
--------------------------------|--------------------------------|
--2-----------2--2--------------|--------------------------------|
----0-0-0-0-0-------0-0-0-0-0-0-|--6-----------6--6--------------|
--------------------------------|----4-4-4-4-4-------4-4-4-4-4-4-|


                                                                  
-----------------------|--------------------|--------------------|
------6----4--6--------|--6--------2--------|--4-----------------|
-----------------------|--------------------|-----------6--------|
--4-4------------------|--------------------|--------------------|


                                                                     
--------------------|--------------------|--------------------------|
--6--------2--------|--4-----------------|--6--6--6--6--2--2--2--2--|
--------------------|-----------6--------|--------------------------|
--------------------|--------------------|--------------------------|


                                                      
--------------------------|--------------------------|
--4--4--4--4--------------|--6--6--6--6--2--2--2--2--|
--------------6--6--6--6--|--------------------------|
--------------------------|--------------------------|


                                                            
--------------------------|--------------------------------|
--4--4--4--4--------------|--6-----------------------9--8--|
--------------6--6--6--6--|----4-4-4-4-4-4-4-4-4-4-4-------|
--------------------------|--------------------------------|


                                                                   
---------------------------------|--------------------------------|
--6---------------6----4----2----|--6-----------------------9--8--|
----4-4-4-4-4-4-4----------------|----4-4-4-4-4-4-4-4-4-4-4-------|
---------------------------------|--------------------------------|


                                                                   
---------------------------------|--------------------------------|
--6---------------6----4----2----|--6-----------------------9--8--|
----4-4-4-4-4-4-4----------------|----4-4-4-4-4-4-4-4-4-4-4-------|
---------------------------------|--------------------------------|


                                                                   
---------------------------------|--------------------------------|
--6---------------6----4----2----|--6-----------------------9--8--|
----4-4-4-4-4-4-4----------------|----4-4-4-4-4-4-4-4-4-4-4-------|
---------------------------------|--------------------------------|


                                                                             
---------------------------------|-------------------|----------------------|
--6---------------6----4----2----|--2----------------|----------------------|
----4-4-4-4-4-4-4----------------|-------------------|--6----6----6----6----|
---------------------------------|-------------------|----------------------|


                                                                     
----------------------|----------------------|----------------------|
----------------------|----------------------|----------------------|
--7----7----7----7----|--6----6----6----6----|--7----7----7----7----|
----------------------|----------------------|----------------------|


                                                                     
----------------------|----------------------|----------------------|
----------------------|----------------------|----------------------|
--6----6----6----6----|--7----7----7----7----|--6----6----6----6----|
----------------------|----------------------|----------------------|


                                                                     
----------------------|----------------------|----------------------|
----------------------|----------------------|----------------------|
--7----7----7----7----|--6----6----6----6----|--7----7----7----7----|
----------------------|----------------------|----------------------|


                                                                     
----------------------|----------------------|----------------------|
----------------------|----------------------|----------------------|
--6----6----6----6----|--7----7----7----7----|--6----6----6----6----|
----------------------|----------------------|----------------------|


                                                                     
----------------------|----------------------|----------------------|
----------------------|----------------------|----------------------|
--7----7----7----7----|--6----6----6----6----|--7----7----7----7----|
----------------------|----------------------|----------------------|


                                                      
--------------------------|--------------------------|
--6--6--6--6--6--6--6--6--|--6--6--6--6--6--6--6--6--|
--------------------------|--------------------------|
--------------------------|--------------------------|


                                                      
--------------------------|--------------------------|
--2--2--2--2--2--2--2--2--|--2--2--2--2--2--2--2--2--|
--------------------------|--------------------------|
--------------------------|--------------------------|


                                                      
--------------------------|--------------------------|
--------------------------|--------------------------|
--6--6--6--6--6--6--6--6--|--6--6--6--6--6--6--6--6--|
--------------------------|--------------------------|


                                                      
--------------------------|--------------------------|
--------------------------|--------------------------|
--2--2--2--2--2--2--2--2--|--2--2--2--2--2--2--2--2--|
--------------------------|--------------------------|


                                                      
--------------------------|--------------------------|
--6--6--6--6--6--6--6--6--|--6--6--6--6--6--6--6--6--|
--------------------------|--------------------------|
--------------------------|--------------------------|


                                                      
--------------------------|--------------------------|
--2--2--2--2--2--2--2--2--|--2--2--2--2--2--2--2--2--|
--------------------------|--------------------------|
--------------------------|--------------------------|


                                                      
--------------------------|--------------------------|
--------------------------|--------------------------|
--6--6--6--6--6--6--6--6--|--6--6--6--6--6--6--6--6--|
--------------------------|--------------------------|


                                                      
--------------------------|--------------------------|
--------------------------|--------------------------|
--2--2--2--2--2--2--2--2--|--2--2--2--2--2--2--2--2--|
--------------------------|--------------------------|


                                                                      
----------------------------------|----------------------------------|
--6-------------------------------|----------------------------------|
----4-4-4-4-4-4-4-4-4-4-4-4-4-4-4-|--4-4-4-4-4-4-4-4-4-4-4-4-4-4-4-4-|
----------------------------------|----------------------------------|


                                                                      
----------------------------------|----------------------------------|
--4-------------------------------|--4-----------4-----------4-------|
----2-2-2-2-2-2-2-2-2-2-2-2-2-2-2-|----2-2-2-2-2---2-2-2-2-2---2-2-2-|
----------------------------------|----------------------------------|


                                                                
-------------------------------|-------------------------------|
--2-----------2--2----------2--|--2-----------2--2----------2--|
----0-0-0-0-0-------0-0-0-0----|----0-0-0-0-0-------0-0-0-0----|
-------------------------------|-------------------------------|


                                                                      
----------------------------------|----------------------------------|
----------------------------------|--2---------------4---------------|
--6-------------------------------|----0-0-0-0-0-0-0---2-2-2-2-2-2-2-|
----4-4-4-4-4-4-4-4-4-4-4-4-4-4-4-|----------------------------------|


                                                                      
----------------------------------|----------------------------------|
--6-------------------------------|----------------------------------|
----4-4-4-4-4-4-4-4-4-4-4-4-4-4-4-|--4-4-4-4-4-4-4-4-4-4-4-4-4-4-4-4-|
----------------------------------|----------------------------------|


                                                                      
----------------------------------|----------------------------------|
--4-------------------------------|--4-----------4-----------4-------|
----2-2-2-2-2-2-2-2-2-2-2-2-2-2-2-|----2-2-2-2-2---2-2-2-2-2---2-2-2-|
----------------------------------|----------------------------------|


                                                                
-------------------------------|-------------------------------|
--2-----------2--2----------2--|--2-----------2--2----------2--|
----0-0-0-0-0-------0-0-0-0----|----0-0-0-0-0-------0-0-0-0----|
-------------------------------|-------------------------------|


                                                                      
----------------------------------|----------------------------------|
----------------------------------|--2---------------4---------------|
--6-------------------------------|----0-0-0-0-0-0-0---2-2-2-2-2-2-2-|
----4-4-4-4-4-4-4-4-4-4-4-4-4-4-4-|----------------------------------|


                                                                      
----------------------------------|----------------------------------|
--6-------------------------------|----------------------------------|
----4-4-4-4-4-4-4-4-4-4-4-4-4-4-4-|--4-4-4-4-4-4-4-4-4-4-4-4-4-4-4-4-|
----------------------------------|----------------------------------|


                                                                      
----------------------------------|----------------------------------|
--4-------------------------------|--4-----------4-----------4-------|
----2-2-2-2-2-2-2-2-2-2-2-2-2-2-2-|----2-2-2-2-2---2-2-2-2-2---2-2-2-|
----------------------------------|----------------------------------|


                                                                
-------------------------------|-------------------------------|
--2-----------2--2----------2--|--2-----------2--2----------2--|
----0-0-0-0-0-------0-0-0-0----|----0-0-0-0-0-------0-0-0-0----|
-------------------------------|-------------------------------|


                                                                      
----------------------------------|----------------------------------|
----------------------------------|--2---------------4---------------|
--6-------------------------------|----0-0-0-0-0-0-0---2-2-2-2-2-2-2-|
----4-4-4-4-4-4-4-4-4-4-4-4-4-4-4-|----------------------------------|


                                                                      
----------------------------------|----------------------------------|
--6-------------------------------|----------------------------------|
----4-4-4-4-4-4-4-4-4-4-4-4-4-4-4-|--4-4-4-4-4-4-4-4-4-4-4-4-4-4-4-4-|
----------------------------------|----------------------------------|


                                                                      
----------------------------------|----------------------------------|
--4-------------------------------|--4-----------4-----------4-------|
----2-2-2-2-2-2-2-2-2-2-2-2-2-2-2-|----2-2-2-2-2---2-2-2-2-2---2-2-2-|
----------------------------------|----------------------------------|


                                                                
-------------------------------|-------------------------------|
--2-----------2--2----------2--|--2-----------2--2----------2--|
----0-0-0-0-0-------0-0-0-0----|----0-0-0-0-0-------0-0-0-0----|
-------------------------------|-------------------------------|


                                                                     
----------------------------------|--------------------------------||
----------------------------------|--2---------------4-------4/--x-||
--6-------------------------------|----0-0-0-0-0-0-0---2-2-2-------||
----4-4-4-4-4-4-4-4-4-4-4-4-4-4-4-|--------------------------------||
Comments