Blind Guardian - Lost In The Twilight Hall Chords & Tabs

 

Lost In The Twilight Hall Chords & Tabs

Blind Guardian Chords & Tabs

Version: 1 Type: Bass Tab 0 ratings
1 star 2 stars 3 stars 4 stars 5 stars
comments

Lost In The Twilight Hall Bass Tab

Tune Down

F#||---------------------|-------------------------|---------------------|
C#||---------------------|-------------------------|-----------9---------|
G#||---------------------|--3--3--3----2--2--2-----|--------------9------|
D#||--0--------3--3------|----------------------3--|--0------------------|


                                                                             
----------------------------|---------------------|-------------------------|
----------------------------|---------------------|-------------------------|
----------------------------|---------------------|--3--3--3----2--2--2-----|
--3-3-3--3-3-3--2--2--1--1--|--0--------3--3------|----------------------3--|


                                                                      
---------------------|----------------------------|------------------|
-----------9---------|----------------------------|------------------|
--------------9------|----------------------------|------------------|
--0------------------|--3-3-3--3-3-3--2--2--1--1--|------------------|


                                                            
------------------------|----------------------------------|
------------------------|----------------------------------|
----------2-2-2--5-5-5--|--7-7-7-7---------5-5-5-5-5-5-5-5-|
------------------------|----------7-7-7-7-----------------|


                                                                      
----------------------------------|----------------------------------|
----------------------------------|----------------------------------|
------------------2-2-2-2-5-5-5-5-|--7-7-7-7---------5-5-5-5-5-5-5-5-|
--3-3-3-3-3-3-3-3-----------------|----------7-7-7-7-----------------|


                                                             
----------------------------------|-------------------------|
----------------------------------|-------------------------|
------------------2-2-2-2-5-5-5-5-|--7----7----7----7-8-7-5-|
--3-3-3-3-3-3-3-3-----------------|-------------------------|


                                                             
-------------------------|----------------------------------|
-------------------------|----------------------------------|
--7----7----7----7-8-7-5-|--7-7-7-7-7-7-7-7-----------------|
-------------------------|------------------7-7-7-7-7-7-7-7-|


                                                                      
----------------------------------|----------------------------------|
----------------------------------|----------------------------------|
------------------2-2-2-2-5-5-5-5-|--7-7-7-7-7-7-7-7-----------------|
--3-3-3-3-3-3-3-3-----------------|------------------7-7-7-7-7-7-7-7-|


                                                          
----------------------------------|----------------------|
----------------------------------|----------------------|
------------------2-2-2-2-5-5-5-5-|--3------3--2------2--|
--3-3-3-3-3-3-3-3-----------------|----------------------|


                                                                        
----------------------|----------------------|-------------------------|
----------------------|----------------------|-------------------------|
------------0------0--|--3------3--2------2--|--7----7----7----7-8-7-5-|
--3------3------------|----------------------|-------------------------|


                                                                  
----------------------|---------------------|--------------------|
----------------------|---------------------|--------------------|
--3------3--0------0--|---------------------|--3--------0--------|
----------------------|--0------2--3--------|--------------------|


                                                                                
-------------------|-------------------|-------------------|-------------------|
-------------------|-------------------|-------------------|-------------------|
-------------------|--1----------------|--3----------------|-------------------|
--0----------------|-------------------|-------------------|--0----------------|


                                                                                
-------------------|-------------------|-------------------|-------------------|
-------------------|-------------------|-------------------|-------------------|
-------------------|--1----------------|--3----------------|-------------------|
--0----------------|-------------------|-------------------|--0----------------|


                                                                      
----------------------------------|----------------------------------|
----------------------------------|----------------------------------|
--7-7-7-7-7-7-7-7-5-5-5-5-5-5-5-5-|--3-3-3-3-3-3-3-3-2-2-2-2-2-2-2-2-|
----------------------------------|----------------------------------|


                                                                      
----------------------------------|----------------------------------|
----------------------------------|----------------------------------|
--7-7-7-7-7-7-7-7-5-5-5-5-5-5-5-5-|--3-3-3-3-3-3-3-3-2-2-2-2-2-2-2-2-|
----------------------------------|----------------------------------|


                                                                      
----------------------------------|----------------------------------|
----------------------------------|----------------------------------|
--7-7-7-7-7-7-7-6-5-5-5-5-5-5-5-4-|--3-3-3-3-3-3-3-3-2-2-2-2-2-2-2-2-|
----------------------------------|----------------------------------|


                                                           
----------------------------------|-----------------------|
----------------------------------|-----------------------|
--7-7-7-7-7-7-7-7-5-5-5-5-5-5-5-5-|--3----2----10----9----|
----------------------------------|-----------------------|


                                                                      
----------------------------------|----------------------------------|
----------------------------------|----------------------------------|
--7-7-7-7-7-7-7-7-5-5-5-5-5-5-5-5-|--3-3-3-3-3-3-3-3-2-2-2-2-2-2-2-2-|
----------------------------------|----------------------------------|


                                                                      
----------------------------------|----------------------------------|
----------------------------------|----------------------------------|
--7-7-7-7-7-7-7-7-5-5-5-5-5-5-5-5-|--3-3-3-3-3-3-3-3-2-2-2-2-2-2-2-2-|
----------------------------------|----------------------------------|


                                                                      
----------------------------------|----------------------------------|
----------------------------------|----------------------------------|
------------------5-5-5-5-5-5-5-5-|------------------2-2-2-2-2-2-2-2-|
--3-3-3-3-3-3-3-3-----------------|--0-0-0-0-0-0-0-0-----------------|


                                                                      
----------------------------------|----------------------------------|
----------------------------------|----------------------------------|
--3-3-3-3-3-3-3-3-5-5-5-5-5-5-5-5-|--3-3-3-3-3-3-3-3-2-2-2-2-2-2-2-2-|
----------------------------------|----------------------------------|


                                                                      
----------------------------------|----------------------------------|
----------------------------------|----------------------------------|
------------------5-5-5-5-5-5-5-5-|--7-7-7-7-7-7-7-7-7-7-7-7-7-7-7-7-|
--3-3-3-3-3-3-3-3-----------------|----------------------------------|


                                                                      
----------------------------------|----------------------------------|
----------------------------------|----------------------------------|
--3-3-3-3-3-3-3-3-5-5-5-5-5-5-5-5-|--2-2-2-2-2-2-2-2-2-2-2-2-2-2-2-2-|
----------------------------------|----------------------------------|


                                                                      
----------------------------------|----------------------------------|
----------------------------------|----------------------------------|
--3-3-3-3-3-3-3-3-5-5-5-5-5-5-5-5-|--2-2-2-2-2-2-2-2-----------------|
----------------------------------|------------------0-0-0-0-0-0-0-0-|


                                                               
---------------------------|----------------------------------|
---------------------------|----------------------------------|
--3-3-3-3-3-3-3-3-5--------|----------------------------------|
---------------------------|--0-0-0-0-0-0-0-0-0-0-0-0-0-0-0-0-|

[ Tab from: http://www.guitartabs.cc/tabs/b/blind_guardian/lost_in_the_twilight_hall_btab.html ]
                                                                      
----------------------------------|----------------------------------|
----------------------------------|----------------------------------|
--3-3-3-3-3-3-3-3-5-5-5-5-5-5-5-5-|------------------3-3-3-3-3-3-3-3-|
----------------------------------|--0-0-0-0-0-0-0-0-----------------|


                                                                          
---------------------------|----------------------|----------------------|
---------------------------|----------------------|----------------------|
--5-5-5-5-5-5-5-5-5--------|----------------------|--2-2--2-2------------|
---------------------------|--0-0--0-0------------|----------------------|


                                                                     
----------------------|----------------------|----------------------|
----------------------|----------------------|----------------------|
----------------------|--5-5--5-5------------|----------------------|
--3-3--3-3------------|----------------------|--0-0--0-0------------|


                                                                     
----------------------|----------------------|----------------------|
----------------------|----------------------|----------------------|
--2-2--2-2------------|----------------------|--5-5--5-5------------|
----------------------|--3-3--3-3------------|----------------------|


                                                          
-------------------|------------------|------------------|
-------------------|------------------|------------------|
-------------------|------------------|------------------|
--0----------------|------------------|------------------|


                                                                      
--------------------------|------------------|-----------------------|
--------------------------|------------------|-----------------------|
--------------------------|------------------|-----------------------|
----------1-1-1-1-1-1-1-1-|------------------|----------1-1--1--1-1--|


                                                               
--------------------|--------------------|--------------------|
--------------------|--------------------|--------------------|
-----------1--------|--3-----------------|-----------1--------|
--0-----------------|-----------1--------|--0-----------------|


                                                               
--------------------|--------------------|--------------------|
--------------------|--------------------|--------------------|
--3-----------------|-----------1--------|--3-----------------|
-----------1--------|--0-----------------|-----------1--------|


                                                               
--------------------|--------------------|--------------------|
--------------------|--------------------|--------------------|
-----------1--------|--3-----------------|-----------1--------|
--0-----------------|-----------1--------|--0-----------------|


                                                               
--------------------|--------------------|--------------------|
--------------------|--------------------|--------------------|
--3-----------------|-----------1--------|--3-----------------|
-----------1--------|--0-----------------|-----------1--------|


                                                           
----------------------------|-----------------------------|
----------------------------|-----------------------------|
---------------3-3-3-3-3----|--2-2-2-2-2------------------|
--0-0-0-0-0-----------------|---------------3-3-3--2-2-2--|


                                                                               
----------------------------|-----------------------------|-------------------|
----------------------------|-----------------------------|-------------------|
---------------3-3-3-3-3----|--2-2-2-2-2------------------|--3----------------|
--0-0-0-0-0-----------------|---------------3-3-3--2-2-2--|-------------------|


                                                       
-------------------|----------------------------------|
-------------------|----------------------------------|
--2----------------|------------------5-5-5-5-5-5-5-5-|
-------------------|--3-3-3-3-3-3-3-3-----------------|


                                                                      
----------------------------------|----------------------------------|
----------------------------------|----------------------------------|
--7-7-7-7-7-7-7-7-7-7-7-7-7-7-7-7-|--3-3-3-3-3-3-3-3-5-5-5-5-5-5-5-5-|
----------------------------------|----------------------------------|


                                                                      
----------------------------------|----------------------------------|
----------------------------------|----------------------------------|
--2-2-2-2-2-2-2-2-2-2-2-2-2-2-2-2-|--3-3-3-3-3-3-3-3-5-5-5-5-5-5-5-5-|
----------------------------------|----------------------------------|


                                                                             
----------------------------------|---------------------------|------|------|
----------------------------------|---------------------------|------|------|
--2-2-2-2-2-2-2-2-----------------|--3-3-3-3-3-3-3-3-5--------|------|------|
------------------0-0-0-0-0-0-0-0-|---------------------------|------|------|


                                                                             
------|------|------|------|------|------|------|------|------|------|------|
------|------|------|------|------|------|------|------|------|------|------|
------|------|------|------|------|------|------|------|------|------|------|
------|------|------|------|------|------|------|------|------|------|------|


                                                                   
------|--------------|----------------------|---------------------|
------|--------------|----------------------|---------------------|
------|--------------|--3------3--0------0--|---------------------|
------|--------------|----------------------|--0------2--3--------|


                                                                       
----------------------|------------------------|----------------------|
----------------------|------------------------|----------------------|
--3------3--0------0--|--7------10-7-7----5----|--3------3--0------0--|
----------------------|------------------------|----------------------|


                                                                               
---------------------|---------------------|----------------------------------|
---------------------|---------------------|----------------------------------|
---------------------|--3------3--0--------|------------------5-5-5-5-5-5-5-5-|
--0------2--3--------|---------------------|--3-3-3-3-3-3-3-3-----------------|


                                                                      
----------------------------------|----------------------------------|
----------------------------------|----------------------------------|
--7-7-7-7-7-7-7-7-7-7-7-7-7-7-7-7-|--3-3-3-3-3-3-3-3-5-5-5-5-5-5-5-5-|
----------------------------------|----------------------------------|


                                                                      
----------------------------------|----------------------------------|
----------------------------------|----------------------------------|
--2-2-2-2-2-2-2-2-2-2-2-2-2-2-2-2-|--3-3-3-3-3-3-3-3-5-5-5-5-5-5-5-5-|
----------------------------------|----------------------------------|


                                                               
----------------------------------|---------------------------|
----------------------------------|---------------------------|
--2-2-2-2-2-2-2-2-----------------|--3-3-3-3-3-3-3-3-5--------|
------------------0-0-0-0-0-0-0-0-|---------------------------|


                                                                      
----------------------------------|----------------------------------|
----------------------------------|----------------------------------|
------------------5-5-5-5-5-5-5-5-|--7-7-7-7-7-7-7-7-7-7-7-7-7-7-7-7-|
--3-3-3-3-3-3-3-3-----------------|----------------------------------|


                                                                      
----------------------------------|----------------------------------|
----------------------------------|----------------------------------|
--3-3-3-3-3-3-3-3-5-5-5-5-5-5-5-5-|--2-2-2-2-2-2-2-2-2-2-2-2-2-2-2-2-|
----------------------------------|----------------------------------|


                                                                      
----------------------------------|----------------------------------|
----------------------------------|----------------------------------|
--3-3-3-3-3-3-3-3-5-5-5-5-5-5-5-5-|--2-2-2-2-2-2-2-2-----------------|
----------------------------------|------------------0-0-0-0-0-0-0-0-|


                                     
-----------------------------------||
-----------------------------------||
--3-3-3-3-3-3-3-3-5----------------||
-----------------------------------||
Comments