Blind Guardian - Lord Of The Rings Chords & Tabs

 

Lord Of The Rings Chords & Tabs

Blind Guardian Chords & Tabs

Version: 1 Type: Bass Tab 0 ratings
1 star 2 stars 3 stars 4 stars 5 stars
comments

Lord Of The Rings Bass Tab

Tune Down

F#||--------------------|-------------------|--------------------|
C#||--------------------|-------------------|--------------------|
G#||--------------------|--1----------------|--------------------|
D#||--0--------3--------|-------------------|--0--------3--------|


                                                              
--------------------|--------------------|-------------------|
--------------------|--------------------|-------------------|
--2--------0--------|--------------------|--1----------------|
--------------------|--0--------3--------|-------------------|


                                                             
-------------------|-------------------|--------------------|
-------------------|-------------------|--------------------|
--3----------------|--0----------------|--------------3h-2--|
-------------------|-------------------|--------------------|


                                                                                
-------------------|-------------------|-------------------|-------------------|
-------------------|-------------------|-------------------|-------------------|
--0----------------|-------------------|--3----------------|-------------------|
-------------------|--3----------------|-------------------|--0----------------|


                                                                                
-------------------|-------------------|-------------------|-------------------|
-------------------|-------------------|-------------------|-------------------|
--0----------------|--3----------------|-------------------|-------------------|
-------------------|-------------------|--3----------------|--0----------------|


                                                                                
-------------------|-------------------|-------------------|-------------------|
-------------------|-------------------|-------------------|-------------------|
--0----------------|--3----------------|-------------------|-------------------|
-------------------|-------------------|--3----------------|--1----------------|


                                                                                
-------------------|-------------------|-------------------|-------------------|
-------------------|-------------------|-------------------|-------------------|
--0----------------|--0----------------|--0----------------|-------------------|
-------------------|-------------------|-------------------|--0----------------|


                                                                                
-------------------|-------------------|-------------------|-------------------|
-------------------|-------------------|-------------------|-------------------|
-------------------|--2----------------|--3----------------|-------------------|
--3----------------|-------------------|-------------------|--1----------------|


                                                             
-------------------|-------------------|--------------------|
-------------------|-------------------|--------------------|
--0----------------|--0----------------|--7--------5--------|
-------------------|-------------------|--------------------|


                                                               
--------------------|--------------------|--------------------|
--------------------|--------------------|--------------------|
--2--------3--------|--7--------5--------|--2--------3--------|
--------------------|--------------------|--------------------|


                                                               
--------------------|--------------------|--------------------|
--------------------|--------------------|--------------------|
--7--------5--------|--2--------3--------|--7--------5--------|
--------------------|--------------------|--------------------|


                                                               
--------------------|--------------------|--------------------|
--------------------|--------------------|--------------------|
--2--------3--------|--7--------5--------|--2--------3--------|
--------------------|--------------------|--------------------|


                                                               
--------------------|--------------------|--------------------|
--------------------|--------------------|--------------------|
--7--------5--------|--2--------3--------|--7--------5--------|
--------------------|--------------------|--------------------|


                                                               
--------------------|--------------------|--------------------|
--------------------|--------------------|--------------------|
--2--------3--------|--7--------5--------|--2--------3--------|
--------------------|--------------------|--------------------|


                                                                              
-------------------|-------------------|------------------|------------------|
-------------------|-------------------|------------------|------------------|
--5----------------|--0----------------|------------------|------------------|
-------------------|-------------------|------------------|------------------|


                                                                            
------------------|------------------|------------------|------------------|
------------------|------------------|------------------|------------------|
------------------|------------------|------------------|------------------|
------------------|------------------|------------------|------------------|

[ Tab from: http://www.guitartabs.cc/tabs/b/blind_guardian/lord_of_the_rings_btab.html ]
                                                                               
-------------------|-------------------|------------------|-------------------|
----------5--------|-------------------|------------------|-------------------|
-------------------|--5----------------|------------------|--0----------------|
-------------------|-------------------|------------------|-------------------|


                                                                              
------------------|-------------------|------------------|-------------------|
------------------|-------------------|------------------|-------------------|
------------------|--3----------------|------------------|-------------------|
------------------|-------------------|------------------|--1----------------|


                                                              
------------------|-----------------------|------------------|
------------------|-----------------------|------------------|
------------------|-----------------------|------------------|
------------------|--5----8--7----3--5----|------------------|


                                                                  
-----------------------|------------------|----------------------|
-----------------------|------------------|----------------------|
-----------------------|------------------|----------------------|
--5----8--7----3--5----|------------------|--5----8--7------3----|


                                                                               
-------------------|-------------------|-------------------|------------------|
-------------------|-------------------|-------------------|------------------|
-------------------|----------3--------|-------------------|------------------|
--1----------------|-------------------|--1----------------|------------------|


                                                                               
-------------------|-------------------|------------------|-------------------|
-------------------|-------------------|------------------|-------------------|
--7----------------|--5----------------|------------------|--7----------------|
-------------------|-------------------|------------------|-------------------|


                                                                               
------------------|-------------------|-------------------|-------------------|
------------------|-------------------|-------------------|-------------------|
------------------|--7----------------|-------------------|--5----------------|
------------------|-------------------|--3----------------|-------------------|


                                                                                
-------------------|-------------------|-------------------|-------------------|
-------------------|-------------------|-------------------|-------------------|
--7----------------|--3----------------|--5----------------|--2----------------|
-------------------|-------------------|-------------------|-------------------|


                                                              
-------------------|--------------------|--------------------|
-------------------|--------------------|--------------------|
--3----------------|--7--------5--------|--2--------3--------|
-------------------|--------------------|--------------------|


                                                               
--------------------|--------------------|--------------------|
--------------------|--------------------|--------------------|
--7--------5--------|--2--------3--------|--7--------5--------|
--------------------|--------------------|--------------------|


                                                               
--------------------|--------------------|--------------------|
--------------------|--------------------|--------------------|
--2--------3--------|--7--------5--------|--2--------3--------|
--------------------|--------------------|--------------------|


                                                               
--------------------|--------------------|--------------------|
--------------------|--------------------|--------------------|
--7--------5--------|--2--------3--------|--7--------5--------|
--------------------|--------------------|--------------------|


                                                               
--------------------|--------------------|--------------------|
--------------------|--------------------|--------------------|
--2--------3--------|--7--------5--------|--2--------3--------|
--------------------|--------------------|--------------------|


                                                               
--------------------|--------------------|--------------------|
--------------------|--------------------|--------------------|
--7--------5--------|--2--------3--------|--7--------5--------|
--------------------|--------------------|--------------------|


                                                               
--------------------|--------------------|--------------------|
--------------------|--------------------|--------------------|
--2--------3--------|--7--------5--------|--2--------3--------|
--------------------|--------------------|--------------------|


                                                               
--------------------|--------------------|--------------------|
--------------------|--------------------|--------------------|
--7--------5--------|--2--------3--------|--7--------5--------|
--------------------|--------------------|--------------------|


                                                                                
--------------------|-------------------|-------------------|------------------|
--------------------|-------------------|-------------------|------------------|
--2--------3--------|--5----------------|-------------------|------------------|
--------------------|-------------------|--5----------------|------------------|


                    
------------------||
------------------||
------------------||
------------------||
Comments