Blind Guardian - Imaginations From The Other Side Chords & Tabs

 

Imaginations From The Other Side Chords & Tabs

Blind Guardian Chords & Tabs

Version: 1 Type: Tab 0 ratings
1 star 2 stars 3 stars 4 stars 5 stars
comments

Imaginations From The Other Side Tab

   
  IMAGINATIONS FROM THE OTHER SIDE
by Blind Guardian
from Imaginations from the Other Side (1995)

* Words and music by Blind Guardian (1995)

Transcribed by Stefan Gabriel
e-mail: g9404781@student.anu.edu.au

Legend

fb  - full bend
fbr - full bend then release
hb  - half bend
~   - vibrato
}}  - tremolo picking
T   - tap


Intro (keyboard section)
 Em (pedal)
|-3-|-(3)-3-2-|-(2)--5-|-(3)-3-2-|-(2)-7-|-(7)--7-6-|-(6)--7-|-(7)--7-6-|
|-5-|-(5)-5-4-|-(4)--3-|-(5)-5-4-|-(4)-8-|-(8)--8-7-|-(7)--8-|-(8)--8-7-|
|---|---------|--------|---------|-------|----------|--------|----------|
|---|---------|--------|---------|-------|----------|--------|----------|
|---|---------|--------|---------|-------|----------|--------|----------|
|---|---------|--------|---------|-------|----------|--------|----------|

Enter Guitars
 Em..................................................G5      x4
|-*copied-8ve-above|--------------|-----------------|----------|
|------------------|--------------|-----------------|----------|
|*---------4-------|-3h4p3---5----|---------4-------|-3---2~--*|
|*-2-2-2-2---2-2-2-|-------5---3~-|-2-2-2-2---2-2-2-|---5-----*|
|------------------|--------------|-----------------|----------|
|------------------|--------------|-----------------|----------|
   P.M...    .....]                 P.M....   .....]

*top notes played by lead guitar
|-----------------|-----------------|-----------------|-----------------|
|-----------------|-----------------|-----------------|-----------------|
|-7/9---------7/9-|---------7/9-----|-7/9---------7/9-|---------7/9-----|
|-----------------|-----------------|-4/5---------4/5-|---------4/5-----|
|-5/7-7-7-7-7-5/7-|-7-7-7-7-5/7-7-7-|-5/7-7-7-7-7-5/7-|-7-7-7-7-5/7-7-7-|
|-----------------|-----------------|-----------------|-----------------|
     P.M....]       P.M...]     P.M]      P.M....]      P.M...]     P.M]

|-----------------|-----------------|-----------------|---------------||
|-7/8---------7/8-|---------7/8-----|-7/8---------7/8-|--------15/17~-||
|-7/9---------7/9-|---------7/9-----|-7/9---------7/9-|---------7/9~--||
|-4/5---------4/5-|---------4/5-----|-4/5---------4/5-|---------4/5~--||
|-5/7-7-7-7-7-5/7-|-7-7-7-7-5/7-7-7-|-5/7-7-7-7-7-5/7-|-7-7-7-7-5/7~--||
|-----------------|-----------------|-----------------|---------------||
     P.M....]       P.M...]     P.M]      P.M....]      P.M...]



Riff A               x2
|-----|-----|----|------|-----|---|---|---||
|-----|-----|----|------|-----|---|---|---||
|*-9--|-9---|-12-|-12--*|--_--|-_-|-_-|-_-||
|*-}}-|-}}--|-}}-|-}}--*|-----|---|---|---||
|-----|-----|----|------|-----|---|---|---||
|-----|-----|----|------|-----|---|---|---||
| P.M.|.....|....|.....]|     |   |   |   ||
|-----|-----|----|------|-----|---|---|---||
|-----|-----|----|------|-----|---|---|---||
|*----|-----|-5--|-(5)-*|-2-2-|-4-|-5-|-7-||
|*-2--|-(2)-|-5--|-(5)-*|-2-2-|-4-|-5-|-7-||
|--2--|-(2)-|-3--|-(3)--|-0-0-|-2-|-3-|-5-||
|--0--|-(0)-|----|------|-----|---|---|---||



Riff B
*E5....................................................G5 A5 A#5
|------------------|---------------|------------------|---------|
|------------------|---------------|------------------|---------|
|---**9-----10-----|-9-----7-----9-|-----9-----10-----|---------|
|-----9-----10-----|-9-----7-----9-|-----9-----10-----|-5--7--8-|
|-----7------8-----|-7-----5-----7-|-----7------8-----|-5--7--8-|
|-0-----0-0----0-0-|---0-0---0-0---|-0-0---0-0----0-0-|-3--5--6-|
 P.M.   ...    ...     ...   ...]    P.M.  ...    ...]

 E5....................................................A#5 G5 A5
|------------------|---------------|------------------|---------||
|------------------|---------------|------------------|---------||
|-----9-----10-----|-9-----7-----9-|-----9-----10-----|---------||
|-----9-----10-----|-9-----7-----9-|-----9-----10-----|-8--5--7-||
|-----7------8-----|-7-----5-----7-|-----7------8-----|-8--5--7-||
|-0-----0-0----0-0-|---0-0---0-0---|-0-0---0-0----0-0-|-6--3--5-||
 P.M.   ...    ...     ...   ...]    P.M.  ...    ...]
**played by lead
*2nd time only



Riff C
|---|-----|---|-----|---|-----|---|------------|
|---|-----|---|-----|---|-----|---|------------|
|---|-----|---|-----|---|-----|---|-------7--7/|
|---|-----|---|-----|---|-----|---|-7--9-------|
|---|-----|---|-----|---|-----|---|-------5--5/|
|---|-----|---|-----|---|-----|---|-5--7-------|
|   |     |   |     |   |     |   |            |
|---|-----|---|-----|---|-----|---|------------|
|---|-----|---|-----|---|-----|---|------------|
|---|-----|---|-----|-7-|-(7)-|-2-|-(2)--------|
|-2-|-(2)-|-5-|-(5)-|-7-|-(7)-|-2-|-(2)--------|
|-2-|-(2)-|-5-|-(5)-|-5-|-(5)-|-0-|-(0)--------|
|-0-|-(0)-|-3-|-(3)-|---|-----|---|------------|

|----|-----|-----|-----------------|-----|----------|-----|------||
|----|-----|-----|-15~-13h15p13-12-|-----|----12----|-----|------||
|9~--|-(9)-|-12~-|-----------------|-14~-|-14----12-|-14~-|-(14)-||
|----|-----|-----|-12~-10h12p10--9-|-----|-----9----|-----|------||
|7~--|-(7)-|-10~-|-----------------|-12~-|-12----10-|-12~-|-(12)-||
|----|-----|-----|-----------------|-----|----------|-----|------||
|    |     |     |                 |     |          |     |      ||
|----|-----|-----|-----------------|-----|----------|-----|------||
|----|-----|-----|-----------------|-----|----------|-----|------||
|----|-----|-----|-----------------|-7---|-(7)------|-2---|-(2)--||
|-2--|-(2)-|-5---|-(5)-------------|-7---|-(7)------|-2---|-(2)--||
|-2--|-(2)-|-5---|-(5)-------------|-5---|-(5)------|-0---|-(0)--||
|-0--|-(0)-|-3---|-(3)-------------|-----|----------|-----|------||



Riff D
|---|-----|---|-----|---|-----|------|-----||
|---|-----|---|-----|---|-----|------|-----||
|---|-----|-2-|-(2)-|-4-|-(4)-|-7--6-|-(6)-||
|-4-|-(4)-|-2-|-(2)-|-4-|-(4)-|-7--6-|-(6)-||
|-4-|-(4)-|-0-|-(0)-|-2-|-(2)-|-5--4-|-(4)-||
|-2-|-(2)-|---|-----|---|-----|------|-----||
*other guitar plays same except muted chords



Lead 1
|-----------------|-----------------|-----------------|-----------------|
|-------------12hb|(12)-12~---------|-13~---------12~-|---------13~-----|
|-11~-------------|---------14~-----|-----------------|-14~-------------|
|--------------9hb|(-9)--9~---------|-10~----------9~-|---------10~-----|
|--9~-------------|---------12~-----|-----------------|-12~-------------|
|-----------------|-----------------|-----------------|-----------------|
|                 |                 |                 |                 |
|-----------------|-----------------|-----------------|-----------------|
|-----------------|-----------------|-----------------|-----------------|
|-----------------|-----------------|-----------------|-----------------|
|-4-----------4---|---------4-------|-3-----------3---|---------3-------|
|-4-----------4---|---------4-------|-3-----------3---|---------3-------|
|-2-2-2-2-2-2-2-2-|-2-2-2-2-2-2-2-2-|-1-1-1-1-1-1-1-1-|-1-1-1-1-1-1-1-1-|
    P.M.....]   P.M.......]   P.M..]    P.M.....]   P.M.......]   P.M..]

|-----------------|-----------------|-----------------|-----------------||
|-13fb--------13~-|-12~-------------|-----------------|-----------------||
|-----------------|-----------------|-14~---------12~-|-11~-------------||
|-10fb--------10~-|--9~-------------|-----------------|---------14~-----||
|-----------------|-----------------|-12~---------10~-|--9~-------------||
|-----------------|-----------------|-----------------|---------12~-----||
|                 |                 |                 |                 ||
|-----------------|-----------------|-----------------|-----------------||
|-----------------|-----------------|-----------------|-----------------||
|-----------------|-----------------|-7-----------7---|---------7-------||
|-5-----------5---|---------5-------|-7-----------7---|---------7-------||
|-5-----------5---|---------5-------|-5-5-5-5-5-5-5-5-|-5-5-5-5-5-5-5-5-||
|-3-3-3-3-3-3-3-3-|-3-3-3-3-3-3-3-3-|-----------------|-----------------||
    P.M.....]   P.M.......]   P.M..]    P.M.....]   P.M.......]   P.M..]



Riff E
|-------------|-------------------|-------------|-------------------|
|-14hbr-(14)~-|14-15-14-------14~-|-14hbr-(14)~-|14-15-14-----------|
|-------------|---------16-14-----|-------------|---------16-14-----|
|-------------|-------------------|-------------|---------------16~-|
|-------------|-------------------|-------------|-------------------|
|-------------|-------------------|-------------|-------------------|
|             |                   |             |                   |
|-------------|-------------------|-------------|-------------------|
|-------------|-------------------|-------------|-------------------|
|-------------|-------------------|-------------|-------------------|
|-4-----------|-(4)---------------|-2-----------|-(2)---------------|
|-4-----------|-(4)---------------|-2-----------|-(2)---------------|
|-2-----------|-(2)---------------|-0-----------|-(0)---------------|

|-------------|-------------------|----------------|-14-------------||
|-14hbr-(14)~-|14-15-14-------14~-|-14hbr-(14)~----|--------17--14~-||
|-------------|---------16-14-----|-------------14-|----14----------||
|-------------|-------------------|----------------|----------------||
|-------------|-------------------|----------------|----------------||
|-------------|-------------------|----------------|----------------||
|             |                   |                |                ||
|-------------|-------------------|----------------|----------------||
|-------------|-------------------|----------------|----------------||
|-4-----------|-(4)---------------|-2--------------|-(2)------------||
|-4-----------|-(4)---------------|-2--------------|-(2)------------||
|-2-----------|-(2)---------------|-0--------------|-(0)------------||
|-------------|-------------------|----------------|----------------||



Lead 2
|-----------------|----------------|-12h14p12-------------|----------17-19-|
|-10/17fb~~~------|-(17)-----------|-14h17p14-15fbr-14h15-|-14~------19-21-|
|-----------------|----------------|----------16fbr-14h16-|-14~------------|
|-----------------|----------------|----------------------|----------------|
|-----------------|----------------|----------------------|----------------|
|-----------------|----------------|----------------------|----------------|
|                 |                |                      |                |
|-----------------|----------------|----------------------|----------------|
|-----------------|----------------|----------------------|----------------|
|-----------------|----------------|----------------------|----------------|
|-----------------|----------------|----------------------|----------------|
|-4-4-4-4--4--4-4-|-4-4--4--4-4--4-|-6--6--6--6---6--6--6-|-6-6--2--2-2--2-|
|-2-2-2-2--2--2-2-|-2-2--2--2-2--2-|-4--4--4--4---4--4--4-|-4-4--0--0-0--0-|
 P.M......................................................................]

|-21-19-17-19-21-19-17-19-|-21-19-17-19-21-19-17-19-|-21fb~-----19h21-|
|-22-21-19-21-22-21-19-21-|-22-21-19-21-22-21-19-21-|-22fb~-----21h22-|
|-------------------------|-------------------------|-----------------|
|-------------------------|-------------------------|-----------------|
|-------------------------|-------------------------|-----------------|
|-------------------------|-------------------------|-----------------|
|                         |                         |                 |
|-------------------------|-------------------------|-----------------|
|-------------------------|-------------------------|-----------------|
|-------------------------|-------------------------|-----------------|
|-------------------------|-------------------------|-----------------|
|-4--4--4--4---4---4--4---|-4--4---4---4--4---4-----|-6-6-6-6--6--6-6-|
|-2--2--2--2---2---2--2---|-2--2---2---2--2---2-----|-4-4-4-4--4--4-4-|
P.M..................................................................]


|-19~------------|-21-21-19-19-17-17-19-19-|-17-17-16-16-14-14-12-12-|
|-21~------------|-22-22-21-21-19-19-21-21-|-19-19-17-17-16-16-14-14-|
|----------------|-------------------------|-------------------------|
|----------------|-------------------------|-------------------------|
|----------------|-------------------------|-------------------------|
|----------------|-------------------------|-------------------------|
|                |                         |                         |
|----------------|-------------------------|-------------------------|
|----------------|-------------------------|-------------------------|
|----------------|-------------------------|-------------------------|
|----------------|-------------------------|-------------------------|
|-6-6--2--2-2--2-|-4--4--4--4---4---4--4---|-4--4----4----4--4---4---|
|-4-4--0--0-0--0-|-2--2--2--2---2---2--2---|-2--2----2----2--2---2---|
 P.M...............................................................]

|22fb~~----------|-22~~----------|-17p0p19p0p21p0p17p0|p19p0p21p0p17p0p19p0-|
|24fb~~----------|-24~~----------|-19---21---22---19--|-21---22---19---21---|
|----------------|---------------|--------------------|---------------------|
|----------------|---------------|--------------------|---------------------|
|----------------|---------------|--------------------|---------------------|
|----------------|---------------|--------------------|---------------------|
|                |               |                    |                     |
|----------------|---------------|--------------------|---------------------|
|----------------|---------------|--------------------|---------------------|
|----------------|---------------|--------------------|---------------------|
|----------------|---------------|--------------------|---------------------|
|6-6-6-6--6--6-6-|6-6--6--6-6--6-|--2-2-2-2---2---2-2-|-2-2---2---2-2---2---|
|4-4-4-4--4--4-4-|4-4--4--4-4--4-|--0-0-0-0---0---0-0-|-0-0---0---0-0---0---|
 P.M......................................................................]

|-21hb-21-19-21-19-17-|-19~------------||
|-22fb-22-21-22-21-19-|-21~------------||
|---------------------|----------------||
|---------------------|----------------||
|---------------------|----------------||
|---------------------|----------------||
|                     |                ||
|---------------------|----------------||
|---------------------|----------------||
|---------------------|----------------||
|-4-4-4-4--4--4-4-----|-4-4--4--4-4--4-||
|-2-2-2-2--2--2-2-----|-2-2--2--2-2--2-||
|---------------------|----------------||
  P.M.................................]



Riff F
                              x3
|-----------------|-------------|-----------------|-------||
|-----------------|-------------|-----------------|-------||
|*----------------|------------*|-----------------|-------||
|*--------6-------|-----5-5--2-*|---------6-------|-----6-||
|-4-4-4-4-4-4-4-4-|-4-4-3-2--0--|-4-4-4-4-4-4-4-4-|-4-4-4-||
|-----------------|-------------|-----------------|-------||
  P.M...]   P.M.......]           P.M...]   P.M.......]



Riff G                                             x2
|---------------5-|-(5)----|-(5)--------5-4-|-(4)----|
|---------------7-|-(7)----|-(7)--------7-6-|-(6)----|
|*----------------|--------|----------------|-------*|
|*----------------|--------|----------------|-------*|
|-----------------|--------|----------------|--------|
|-----------------|--------|----------------|--------|
|                 |        |                |        |
|-----------------|--------|----------------|--------|
|-----------------|--------|----------------|--------|
|*----------------|--------|----------------|-------*|
|*----------------|--------|----------------|-------*|
|--4-4-4-4-4--4-4-|-4-4-4--|-4-4-4-4-4--4-4-|-4-4-3--|
|--2-2-2-2-2--2-2-|-2-2-2--|-2-2-2-2-2--2-2-|-2-2-1--|
   P.M................]      P.M................]

                                                   x2
|---------------9-|-(-9)---|-(-9)-------9-8-|-(8)----|
|--------------10-|-(10)---|-(10)------10-9-|-(9)----|
|*----------------|--------|----------------|-------*|
|*----------------|--------|----------------|-------*|
|-----------------|--------|----------------|--------|
|-----------------|--------|----------------|--------|
|                 |        |                |        |
|-----------------|--------|----------------|--------|
|-----------------|--------|----------------|--------|
|*----------------|--------|----------------|-------*|
|*----------------|--------|----------------|-------*|
|--4-4-4-4-4--4-4-|-4-4-4--|-4-4-4-4-4--4-4-|-4-4-3--|
|--2-2-2-2-2--2-2-|-2-2-2--|-2-2-2-2-2--2-2-|-2-2-1--|
P.M................]      P.M................]

                                                                        x4
|--9-9-9-9-9-9-9-9-|-9-9-9-9-9-9-9-9-|-5-5-5-5-5-5-5-5-|-5-5-5-5-5-5-5-5--||
|------------------|-----------------|-----------------|------------------||
|*-----------------|-----------------|-----------------|-----------------*||
|*-----------------|-----------------|-----------------|-----------------*||
|--9-9-9-9-9-9-9-9-|-9-9-9-9-9-9-9-9-|-5-5-5-5-5-5-5-5-|-5-5-5-5-5-5-5-5--||
|------------------|-----------------|-----------------|------------------||
| P.M.(light)......|.................|.................|................] ||
|------------------|-----------------|-----------------|------------------||
|------------------|-----------------|-----------------|------------------||
|------------------|-----------------|-7---------------|-(7)--------------||
|*-4---------------|-(4)-------------|-7---------------|-(7)-------------*||
|*-4---------------|-(4)-------------|-5---------------|-(5)-------------*||
|--2---------------|-(2)-------------|-----------------|------------------||



Riff H
|----------|----------|----------|--------------|----------|----------|
|----------|----------|----------|--------------|----------|----------|
|-4--------|-4--------|-6--------|--------------|----------|----------|
|-4--------|-4--------|-6--------|--------------|-4--------|-4--------|
|-2--2-2-2-|-2--2-2-2-|-4--4-4-4-|-4-4-4--4-4-4-|-4--------|-4--------|
|----------|----------|----------|--------------|-2--2-2-2-|-2--2-2-2-|
     P.M..]     P.M..]     P.M.................]     P.M..]     P.M..]

|----------|--------------|----------|----------|----------|--------------|
|----------|--------------|----------|----------|----------|--------------|
|-2--------|--------------|-4--------|-4--------|-6--------|--------------|
|-2--------|--------------|-4--------|-4--------|-6--------|--------------|
|-0--0-0-0-|-0-0-0--0-0-0-|-2--2-2-2-|-2--2-2-2-|-4--4-4-4-|-4-4-4--4-4-4-|
|----------|--------------|----------|----------|----------|--------------|
     P.M.................]     P.M..]     P.M..]     P.M.................]

|-------------|-----------|--------------|----------------|----------|
|-------------|-14~-12-10-|12hb~-12-10-9-|10-9----9-------|----------|
|--9--7--9-11-|-----------|--------------|-----12---12-10-|-7~-------|
|-11--9-11-12-|-11~--9--7-|-9hb~--9--7-6-|-7-6----6-------|-9~-------|
|-------------|-----------|--------------|------9----9--7-|----------|
|-------------|-----------|--------------|----------------|----------|
|             |           |              |                |          |
|-------------|-----------|--------------|----------------|----------|
|-------------|-----------|--------------|----------------|----------|
|-------------|-----------|--------------|----------------|-4--------|
|-4-----------|-4----2----|--4-----------|-4-----2--------|-4--------|
|-4-----------|-4----2----|--4-----------|-4-----2--------|-2--2-2-2-|
|-2---2-2-2---|-2----0----|--2----2-2-2--|-2-----0--------|----------|
      P.M..]                      P.M..]                   P.M..]
[ Tab from: http://www.guitartabs.cc/tabs/b/blind_guardian/imaginations_from_the_other_side_tab.html ]
|----------|----------|--------------|----------|----------|-----------|
|----------|----------|--------------|----------|----------|-----------|
|--9~--11~-|-10~------|-11~--13~-----|-14--13---|-11---9~--|-(-9)--6~--|
|-11~--12~-|-11~------|-13~--15~-----|-16--15---|-13--11~--|-(11)--7~--|
|----------|----------|--------------|----------|----------|-----------|
|----------|----------|--------------|----------|----------|-----------|
|          |          |              |          |          |           |
|----------|----------|--------------|----------|----------|-----------|
|----------|----------|--------------|----------|----------|-----------|
|-4--------|-6--------|--------------|----------|----------|-2---------|
|-4--------|-6--------|--------------|-4--------|-4--------|-2---------|
|-2--2-2-2-|-4--4-4-4-|-4-4-4--4-4-4-|-4--------|-4--------|-0--0-0-0--|
|----------|----------|--------------|-2--2-2-2-|-2--2-2-2-|-----------|
     P.M..]     P.M.................]     P.M..]     P.M..]     P.M..]

|--------------|----------|----------|----------|--------------|
|--------------|----------|----------|----------|--------------|
|-(6)----7---9-|-7~-------|--9~--11~-|-10~------|-11~--13~-----|
|-(7)----9--11-|-9~-------|-11~--12~-|-11~------|-13---15~-----|
|--------------|----------|----------|----------|--------------|
|--------------|----------|----------|----------|--------------|
|              |          |          |          |              |
|--------------|----------|----------|----------|--------------|
|--------------|----------|----------|----------|--------------|
|--------------|-4--------|-4--------|-6--------|--------------|
|--------------|-4--------|-4--------|-6--------|--------------|
|-0-0-0--0-0-0-|-2--2-2-2-|-2--2-2-2-|-4--4-4-4-|-4-4-4--4-4-4-|
|--------------|----------|----------|----------|--------------|
     P.M..]     P.M..]     P.M.................]

|---------------|------------|----------------|-----------------||
|---------10-12-|-14~--12-10-|-12hb~--12-10-9-|-10-9-----9------||
|-11---13-------|------------|----------------|------11----11-9-||
|----------7--9-|-11~---9--7-|--9hb~---9--7-6-|--7-6-----6------||
|--9---11-------|------------|----------------|-------9-----9-7-||
|---------------|------------|----------------|-----------------||
|     P.M.]     |            |                |                 ||
|---------------|------------|----------------|-----------------||
|---------------|------------|----------------|-----------------||
|---------------|------------|----------------|-----------------||
|--4------------|--4----2----|--4-------------|---4-----2-------||
|--4------------|--4----2----|--4-------------|---4-----2-------||
|--2---2--2--2--|--2----0----|--2---2--2--2---|---2-----0-------||



Fill 1
|-----||
|-----||
|-11~-||
|-----||
|-9~--||
|-----||



Solo
|-14~----------|--------------|--------------|----------------------|
|--------------|-14~----------|-15~----------|-15-14-12~--12--------|
|-11~----------|--------------|--------------|---------------14-12~-|
|--------------|-11~----------|-12~----------|-12-11--9~---9--------|
|--------------|--------------|--------------|---------------12-10~-|
|--------------|--------------|--------------|----------------------|
|              |              |              |                      |
|----10-12-14~-|----10-12-14~-|----10-12-14~-|----------------------|
|----12-14-15~-|----12-14-15~-|----12-14-15~-|----------------------|
|--------------|--------------|--------------|--------____----------|
|--------------|--------------|--------------|----------------------|
|--------------|--------------|--------------|----------------------|
|--------------|--------------|--------------|----------------------|
|              |              |              |                      |
|--------------|--------------|--------------|----------------------|
|--------------|--------------|--------------|----------------------|
|--------------|-6------------|-7------------|----------------------|
|-4------------|-6------------|-7------------|----------------------|
|-4------------|-4------------|-5------------|--5--4--2----2--------|
|-2------------|--------------|--------------|----------------5--3--|
                                               P.M.................]

|--------------|--------------|--------------|----------------------|
|--------------|-14~----------|-15~----------|-15-14-12~--12--------|
|-11~----------|--------------|--------------|---------------14-12~-|
|--------------|-11~----------|-12~----------|-12-11--9~---9--------|
|--9~----------|--------------|--------------|---------------12-10~-|
|--------------|--------------|--------------|----------------------|
|              |              |              |                      |
|----10-12-14~-|----10-12-14~-|----10-12-14~-|----------------------|
|----12-14-15~-|----12-14-15~-|----12-14-15~-|----------------------|
|--------------|--------------|--------------|--------____----------|
|--------------|--------------|--------------|----------------------|
|--------------|--------------|--------------|----------------------|
|--------------|--------------|--------------|----------------------|
|              |              |              |                      |
|--------------|--------------|--------------|----------------------|
|--------------|--------------|--------------|----------------------|
|--------------|-6------------|-7------------|----------------------|
|-4------------|-6------------|-7------------|----------------------|
|-4------------|-4------------|-5------------|--5--4--2----2--------|
|-2------------|--------------|--------------|----------------5--3--|
                                               P.M.................]

|-----------------|----------------------|----------|-7~---6~-|
|-----16-17-14-16-|-12-14-11-12-9-11-7-9-|-5~---7-9-|---------|
|-13~-------------|----------------------|----------|-4~---3~-|
|-----13-14-11-13-|--9-11--8--9-6--8-4-6-|-2~---4-6-|---------|
|-11~-------------|----------------------|----------|---------|
|-----------------|----------------------|----------|---------|
|                 |                      |          |---------|
|-----------------|----------------------|----------|---------|
|-----------------|----------------------|----------|---------|
|-----------------|-8--------------------|-9--------|---------|
|-6---------------|-8--------------------|-9--------|-9----8--|
|-6---------------|-6--------------------|-7--------|-9----8--|
|-4---------------|----------------------|----------|-7----6--|

|-7~-----11-12-|-14~--12-14-12-11-|------------|----------|
|--------------|------------------|-14~--14fbr-|-12~--14~-|
|-4~------8--9-|-11~---9-11--9--8-|------------|----------|
|--------------|------------------|-11~--11fbr-|--9~--11~-|
|--------------|------------------|------------|----------|
|--------------|------------------|------------|----------|
|              |                  |            |          |
|--------------|------------------|------------|----------|
|--------------|------------------|------------|----------|
|--------------|-8----------------|-9----------|----------|
|-6------------|-8----------------|-9----------|-9-----8--|
|-6------------|-6----------------|-7----------|-9-----8--|
|-4------------|------------------|------------|-7-----6--|

|-17-17-17-17-17-(17fb**)-|(17)r----17-|-16~-------------|------------------|
|-------------------------|------------|--------18-17-15-|-17~-----15h17p15-|
|-14-14-14-14-14-(14fb**)-|(14)r----14-|-13~-------------|------------------|
|-------------------------|------------|--------15-14-12-|-14~-----12h14p12-|
|-------------------------|------------|-----------------|------------------|
|-------------------------|------------|-----------------|------------------|
|** bend 2+1/2 (3 frets)  |            |                 |                  |
|-------------------------|------------|-----------------|------------------|
|-------------------------|------------|-----------------|------------------|
|-------------------------|----___-----|-----------------|--------___-------|
|---------7---------------|------------|---------6-------|------------------|
|-7-7-7-7-7---------------|------------|-6-6-6-6-6-------|------------------|
|-5-5-5-5-5---------------|------------|-4-4-4-4-4-------|------------------|

|-------------|-----------------|-------------|---------------|
|-----15~-17~-|-15~-13h15p13-12-|-------------|---------------|
|-17~---------|-----------------|-14~-16~-17~-|14h16p14-12----|
|-----12~-14~-|-12~-10h12p10--9-|-------------|------------15-|
|-15~---------|-----------------|-12~-14~-15~-|12h14p12-10----|
|-------------|-----------------|-------------|------------13-|
|             |                 |             |               |
|-------------|-----------------|-------------|---------------|
|-------------|-----------------|-------------|---------------|
|-------------|------_____------|---------7---|---------5-----|
|---------5---|-----------------|-7-7-7-7-7---|-5-5-5-5-5-----|
|-5-5-5-5-5---|-----------------|-5-5-5-5-5---|-3-3-3-3-3-----|
|-3-3-3-3-3---|-----------------|-------------|---------------|

   T          T          T          T
|-12-5h-8p5--12-5h-8p5--12-5h-8p5--13-5h-8p5-|
|-13-6h10p6--13-6h10p6--13-6h10p6--15-6h10p6-|
|--------------------------------------------|
|-(14~)--------------------------------------|
|--------------------------------------------|
|-(12~)--------------------------------------|
|                                            |
|--------------------------------------------|
|--------------------------------------------|
|--------------------------------------------|
|--------------------------------------------|
|--------------------------------------------|
|-5----5-----5----5-----5----5-----5----5----|
 P.M...................................]

  T         T         T         T
|-12-5h-8p5-12-5h-8p5-12-5h-8p5-13-5h-8p5-|
|-13-6h10p6-13-6h10p6-13-6h10p6-15-6h10p6-|
|-----------------------------------------|
|-----------------------------------------|
|-----------------------------------------|
|-----------------------------------------|
|                                         |
|-----------------------------------------|
|-----------------------------------------|
|-----------------------------------------|
|-----------------------------------------|
|-----------------------------------------|
|-5----5----5----5----5----5----5----5----|
 P.M...................................]

   T        T        T        T          T        T        T        T
|-10-4h7p4-10-4h7p4-10-4h7p4-12-4h7p4-|-10-4h7p4-10-4h7p4-10-4h7p4-12-4h7p4-|
|-12-5h9p5-12-5h9p5-12-5h9p5-13-5h9p5-|-12-5h9p5-12-5h9p5-12-5h9p5-13-5h9p5-|
|-------------------------------------|-------------------------------------|
|-------------------------------------|-------------------------------------|
|-------------------------------------|-------------------------------------|
|-------------------------------------|-------------------------------------|
|                                     |                                     |
|-------------------------------------|-------------------------------------|
|-------------------------------------|-------------------------------------|
|-------------------------------------|-------------------------------------|
|-------------------------------------|-------------------------------------|
|-------------------------------------|-------------------------------------|
|---4---4----4---4----4---4----4---4--|---4---4----4---4----4---4----4---4--|
  P.M.....................................................................]

                                                             A.H
|12--10-12-13--12-13|-15--13-15-17--15-17-|-17~------19-17-|-16~------------|
|13--12-13-15--13-15|-17--15-17-18--17-18-|-18~------20-18-|-17~------------|
|}}--}}-}}-}}--}}-}}|-}}--}}-}}-}}--}}-}}-|----------------|-A.H------------|
|-------------------|---------------------|----------------|----------------|
|-------------------|---------------------|----------------|----------------|
|-------------------|---------------------|----------------|----------------|
|                   |                     |                |                |
|-------------------|---------------------|----------------|----------------|
|-------------------|---------------------|----------------|----------------|
|-------------------|---------------------|----------------|----------------|
|-------------------|---------------------|----------------|----------------|
|-------------------|---------------------|----------------|----------------|
|-3-3-3-3--3-3-3-3--|--3-3-3-3--3-3-3-3---|1-1-1-1-1-1-1-1-|-0-0-0-0-0-0-0-0|
 P.M..................................................................]

   T          T          T          T
|-12-5h-8p5--12-5h-8p5--12-5h-8p5--13-5h-8p5-|
|-13-6h10p6--13-6h10p6--13-6h10p6--15-6h10p6-|
|--------------------------------------------|
|-(14~)--------------------------------------|
|--------------------------------------------|
|-(12~)--------------------------------------|
|                                            |
|--------------------------------------------|
|--------------------------------------------|
|--------------------------------------------|
|--------------------------------------------|
|--------------------------------------------|
|-5----5-----5----5-----5----5-----5----5----|
 P.M......................................]

  T          T          T           T
|-12-5h-8p5--12-5h-8p5--12-5h-8p5--13-5h-8p5-|
|-13-6h10p6--13-6h10p6--13-6h10p6--15-6h10p6-|
|--------------------------------------------|
|--------------------------------------------|
|--------------------------------------------|
|--------------------------------------------|
|                                            |
|--------------------------------------------|
|--------------------------------------------|
|--------------------------------------------|
|--------------------------------------------|
|--------------------------------------------|
|-5----5-----5----5-----5----5-----5----5----|
 P.M.......................................]

   T        T        T        T          T        T        T        T
|-10-4h7p4-10-4h7p4-10-4h7p4-12-4h7p4-|-10-4h7p4-10-4h7p4-10-4h7p4-12-4h7p4-|
|-12-5h9p5-12-5h9p5-12-5h9p5-13-5h9p5-|-12-5h9p5-12-5h9p5-12-5h9p5-13-5h9p5-|
|-------------------------------------|-------------------------------------|
|-------------------------------------|-------------------------------------|
|-------------------------------------|-------------------------------------|
|-------------------------------------|-------------------------------------|
|                                     |                                     |
|-------------------------------------|-------------------------------------|
|-------------------------------------|-------------------------------------|
|-------------------------------------|-------------------------------------|
|-------------------------------------|-------------------------------------|
|-------------------------------------|-------------------------------------|
|---4---4----4---4----4---4----4---4--|---4---4----4---4----4---4----4---4--|
  P.M.....................................................................]

|-----------------|-13fbr-13-12-10-12~-|-16hb------16-16-|-16~-------------||
|-----------------|-15fbr-15-13-12-13~-|-17hb------17-17-|-17~-------------||
|-16hbr-14-13-14~-|--------------------|-----------------|-----------------||
|-----------------|--------------------|-14hb------14-14-|-14~-------------||
|-14hbr-12-11-12~-|--------------------|-----------------|-----------------||
|-----------------|--------------------|-----------------|-----------------||
|                 |                    |                 |                 ||
|-----------------|--------------------|-----------------|-----------------||
|-----------------|--------------------|-----------------|-----------------||
|-----------------|--------------------|-----------------|-----------------||
|-----------------|--------------------|-----------------|-----------------||
|-----------------|--------------------|-----------------|-----------------||
|-3-3-3-3-3-3-3-3-|--3-3-3-3--3-3-3-3--|-1-1-1-1-1-1-1-1-|-0-0-0-0-0-0-0-0-||
  P.M.....................................................................]



Lead 3
 F#5
|------------------------------|------------------12-12-12~-|
|-----------14-----------------|-----------14---------------|
|-----13-14----14~-13h14p13----|-----13-14----14~--9--9--9~-|
|-16~-------11--------------14-|-16~-------11~--------------|
|-----11-12----12~-11h12p11----|-----11-12----12~-----------|
|-14~-----------------------12-|-14~------------------------|

 D5
|------------------------------|------------------14-14-14~-||
|-----------14-----------------|-----------14---------------||
|-----13-14----14~-13h14p13----|-----13-14----14~-11-11-11~-||
|-16~-------11--------------14-|-16~-------11~--------------||
|-----11-12----12~-11h12p11----|-----11-12----12~-----------||
|-14~-----------------------12-|-14~------------------------||



Riff I
|-----------|-------|-----------|-------|-----------------|-----------------|
|-----------|-------|-----------|-------|-----------------|-----------------|
|-----------|--___--|-----------|--___--|-----------------|-----------------|
|---------4-|-------|---------6-|-------|-----------------|-----------------|
|-2-2-2-2-2-|-------|-4-4-4-4-4-|-------|-----------------|-----------------|
|-----------|-------|-----------|-------|-2-2-2-2-2-2-2-2-|-2-2-2-2-2-2-2-2-|
  P.M...]             P.M...]             P.M..............................]

|-----------------|-----------------|-----------------|-----------------|
|-----------------|-----------------|-----------------|-----------------|
|-----------------|-----------------|-----------------|-----------------|
|-----------------|-----------------|-4-----------4---|-------4---------|
|-0-0-0-0-0-0-0-0-|-0-0-0-0-0-0-0-0-|-2-2-2-2-2-2-2-2-|-2-2-2-2-2-2-2-2-|
|-----------------|-----------------|-----------------|-----------------|
  P.M..............................]    P.M.....]   P.M.......]   P.M..]

|-----------------|-----------------|-----------------|-----------------|
|-----------------|-----------------|-----------------|-----------------|
|-----------------|-----------------|-----------------|-----------------|
|-6-----------6---|-------6---------|-----------------|-----------------|
|-4-4-4-4-4-4-4-4-|-4-4-4-4-4-4-4-4-|-4-----------4---|---------4--2----|
|-----------------|-----------------|-2-2-2-2-2-2-2-2-|-2-2-2-2-2--0----|
    P.M.....]   P.M.......]   P.M..]    P.M.....]   P.M.......]

|-----------------|-----------------||
|-----------------|-----------------||
|-----------------|-----------------||
|-----------------|-----------------||
|-4-----------4---|---------4--2----||
|-2-2-2-2-2-2-2-2-|-2-2-2-2-2--0----||
    P.M.....]   P.M.......]



Fill 2
|----||
|----||
|----||
|-4--||
|-4--||
|-2--||



Coda
|--------------5-|-(5)----|-(5)--------5-4-|-(4)----||
|--------------7-|-(7)----|-(7)--------7-6-|-(6)----||
|----------------|--------|----------------|--------||
|----------------|--------|----------------|--------||
|----------------|--------|----------------|--------||
|----------------|--------|----------------|--------||
|                |        |                |        ||
|----------------|--------|----------------|--------||
|----------------|--------|----------------|--------||
|----------------|--------|----------------|--------||
|----------------|--------|----------------|--------||
|-4-4-4-4-4--4-4-|-4-4-4--|-4-4-4-4-4--4-4-|-4-4-3--||
|-2-2-2-2-2--2-2-|-2-2-2--|-2-2-2-2-2--2-2-|-2-2-1--||
  P.M................]      P.M................]




Song Structure
Section         Music                           Lyrics
Intro                   Intro          
Verse 1         Riff A                          Where are these...........
Bridge          Riff B (x2)
Verse 2         Riff C                          Will I ever see them......
Verse 3         Riff D (x2)                     the ocean.................
Lead1                   Lead 1 (x2)
Chorus          Riff E (x4)                     Imaginations..............
Lead 2          Lead 2
Bridge 2                Riff F
Verse 4         Riff G                          Where's the oceans'.......
Verse 5         Riff H, Fill 1                  'Coward Lion' where are...
Verse 6         Riff D (x2)                      Do you know if Merlin....
Chorus          Riff E (x4)                     Imaginations..............
Solo                    Solo
Lead3                   Lead 3 (x2)
Verse 7         Riff I                          I hope there is a way back
Verse 8         Riff D (x2)                     Come follow me............
Chorus          Riff E (x4), Fill 2             Imaginations..............
Coda                    Coda (gradually fade out)
Comments