Blind Guardian - Gandalfs Rebirth Chords & Tabs

 

Gandalfs Rebirth Chords & Tabs

Blind Guardian Chords & Tabs

Version: 1 Type: Bass Tab 0 ratings
1 star 2 stars 3 stars 4 stars 5 stars
comments

Gandalfs Rebirth Bass Tab

   
Gandalf's rebirth by BLIND GUARDIAN From "battalions of fear"
Tabbed by Alberto Mittone
E-mail: Demisteriis@yahoo.it
4 string bass


Intro guitar         Riff 1     00:03

G||-----------------|----------------------------------------------------||
D||-----------------|------------------------------------------------------||
A||-----------------|---------------------------3--------------------------||
E||-----------------|---0-0-0-5--0-0-0-7--0-0-0----7-7-7-7--7-7-7-7--------||

  Riff 2  00:16

G||---------------------------------------------------------------------||
D||-----------------------------------------------------------------------||
A||----------5-7-5------------2-3-5-3-2--------------0-2-3-2-0------------||
E||-7--5-7-8-------8-7-5--3-5-----------5-3-2--0-1-3-----------3-2-3-2-3--||

  Riff 3: 00:23
[ Tab from: http://www.guitartabs.cc/tabs/b/blind_guardian/gandalfs_rebirth_btab.html ]
G||----------------------------------------------------------------------|
D||--------7-9-7-----------------------------------------------------------|
A||-7-9-10-------10-9-7----------9-10-12-10-9------------7-9-10-9-7--------|
E||---------------------10-10-12--------------12-10-8-10------------10-9-7-|

G||--------------||
D||--------------||
A||--------------||
E||-77-8-7-77-8--||

  Riff 4: 01:11

G||-16----14-------------14----12----------12---11---------------------------||
D||----17----16-17-16-17----16----14-16-14----14----12-14-12------------------||
A||----------------------------------------------------------15-14-12-10-9----||
E||------------------------------------------------------------------------10-||
 
  Riff 5: 01:17

G||--------------------------------||
D||---------------------------------||
A||---------------------------------||
E||-0-1-3-0-1-0-0-1-3-5-0-1-3-2-1-0-||

  Riff 6: 01:54

G||-------------||
D||-------------||
A||-7-5-3-2-----||
E||---------3-0-||
Comments