Blind Guardian - Black Chamber Chords & Tabs

 

Black Chamber Chords & Tabs

Blind Guardian Chords & Tabs

Version: 1 Type: Bass Tab 0 ratings
1 star 2 stars 3 stars 4 stars 5 stars
comments

Black Chamber Bass Tab

G||--8-----------------|--6----------------|--8-----------------|
D||-----------9--------|-------------------|-----------9--------|
A||--------------------|-------------------|--------------------|
E||--------------------|-------------------|--------------------|


                                                             
--6----------------|--8-----------------|--6----------------|
-------------------|-----------9--------|-------------------|
-------------------|--------------------|-------------------|
-------------------|--------------------|-------------------|


                                                              
--8-----------------|--6----------------|--------------------|
-----------9--------|-------------------|--6-----------------|
--------------------|-------------------|-----------7--------|
--------------------|-------------------|--------------------|


                                                                                
------------------|--1-----------------|------------------|--1-----------------|
------------------|-----------2--------|------------------|-----------2--------|
------------------|--------------------|------------------|--------------------|
------------------|--------------------|------------------|--------------------|

[ Tab from: http://www.guitartabs.cc/tabs/b/blind_guardian/black_chamber_btab.html ]
                                                                               
------------------|--1-----------------|------------------|-------------------|
------------------|-----------2--------|------------------|--2----------------|
------------------|--------------------|------------------|-------------------|
------------------|--------------------|------------------|-------------------|


                                                                                
-------------------|--1----------------|--1----------------|------1------------|
--2----------------|-------------------|-------------------|-------------------|
-------------------|-------------------|-------------------|-------------------|
-------------------|-------------------|-------------------|-------------------|


                                                                                
------1------------|----------1--------|------------------|----------1---------|
-------------------|-------------------|------------------|---------------3----|
-------------------|-------------------|------------------|--------------------|
-------------------|-------------------|------------------|--------------------|


                                                                               
-------------------|--------------3----|------------------|------------------||
----------3--------|-------------------|------------------|------------------||
-------------------|-------------------|------------------|------------------||
-------------------|-------------------|------------------|------------------||
Comments