Blind Guardian - Banish From Sanctuary Chords & Tabs

 

Banish From Sanctuary Chords & Tabs

Blind Guardian Chords & Tabs

Version: 1 Type: Bass Tab 0 ratings
1 star 2 stars 3 stars 4 stars 5 stars
comments

Banish From Sanctuary Bass Tab

Standard

G||--------------------------|-----------------------|
D||--------------------------|----------0------------|
A||--------------------------|--2---4-------4---2----|
E||--4--4--4--4--4--4--4--4--|-----------------------|


                                                                              
--------------------------|-----------------------|--------------------------|
--------------------------|----------0------------|--------------------------|
--------------------------|--2---4-------4---2----|--------------------------|
--4--4--4--4--4--4--4--4--|-----------------------|--4--4--4--4--4--4--4--4--|


                                                                           
-----------------------|--------------------------|-----------------------|
----------0------------|--------------------------|----------0------------|
--2---4-------4---2----|--------------------------|--2---4-------4---2----|
-----------------------|--4--4--4--4--4--4--4--4--|-----------------------|


                                                      
--------------------------|--------------------------|
--------------------------|--------------------------|
--3--3--3--3--3--3--3--3--|--3--3--3--3--3--3--3--4--|
--------------------------|--------------------------|


                                                                                
--------------------------|-------------------------|--------------------------|
--------------------------|-------------------------|--------------------------|
--3--3--3--3--3--3--3--3--|--3--3--3--3--3--3--3----|--------------------------|
--------------------------|-------------------------|--4--4--4--4--4--4--4--4--|


                                                                                
-------------------------|--------------------------|--------------------------|
-------------------------|--------------------------|--------------------------|
-------------------------|--3--3--3--3--3--3--3--3--|--3--3--3--3--3--3--3--4--|
--4--4--4--4--4--4--4----|--------------------------|--------------------------|


                                                                                
--------------------------|-------------------------|--------------------------|
--------------------------|-------------------------|--------------------------|
--3--3--3--3--3--3--3--3--|--3--3--3--3--3--3--3----|--------------------------|
--------------------------|-------------------------|--4--4--4--4--4--4--4--4--|


                                                                         
-------------------------|--------------------------|-------------------|
-------------------------|--------------------------|-------------------|
-------------------------|--3--3--3--3--3--3--3--3--|--3----------------|
--4--4--4--4--4--4--4----|--------------------------|-------------------|


                                                      
--------------------------|--------------------------|
--------------------------|--------------------------|
--------------------------|--------------------------|
--1--1--1--1--1--1--1--1--|--1--1--1--1--1--1--1--1--|


                                                      
--------------------------|--------------------------|
--------------------------|--------------------------|
--------------------------|--------------------------|
--1--1--1--1--1--1--1--1--|--1--1--1--1--1--1--1--1--|


                                                      
--------------------------|--------------------------|
--------------------------|--------------------------|
--4--4--4--4--4--4--4--4--|--4--4--4--4--4--4--4--4--|
--------------------------|--------------------------|


                                                      
--------------------------|--------------------------|
--------------------------|--------------------------|
--4--4--4--4--4--4--4--4--|--4--4--4--4--4--4--4--4--|
--------------------------|--------------------------|


                                                      
--------------------------|--------------------------|
--------------------------|--------------------------|
--------------------------|--------------------------|
--1--1--1--1--1--1--1--1--|--1--1--1--1--1--1--1--1--|


                                                      
--------------------------|--------------------------|
--------------------------|--------------------------|
--------------------------|--------------------------|
--1--1--1--1--1--1--1--1--|--1--1--1--1--1--1--1--1--|


                                                      
--------------------------|--------------------------|
--------------------------|--------------------------|
--4--4--4--4--4--4--4--4--|--4--4--4--4--4--4--4--4--|
--------------------------|--------------------------|


                                                      
--------------------------|--------------------------|
--------------------------|--------------------------|
--4--4--4--4--4--4--4--4--|--4--4--4--4--4--4--4--4--|
--------------------------|--------------------------|


                                                      
--------------------------|--------------------------|
--------------------------|--------------------------|
--------------------------|--------------------------|
--1--1--1--1--1--1--1--1--|--1--1--1--1--1--1--1--1--|


                                                      
--------------------------|--------------------------|
--------------------------|--------------------------|
--------------------------|--------------------------|
--1--1--1--1--1--1--1--1--|--1--1--1--1--1--1--1--1--|


                                                      
--------------------------|--------------------------|
--------------------------|--------------------------|
--4--4--4--4--4--4--4--4--|--4--4--4--4--4--4--4--4--|
--------------------------|--------------------------|


                                                      
--------------------------|--------------------------|
--------------------------|--------------------------|
--4--4--4--4--4--4--4--4--|--4--4--4--4--4--4--4--4--|
--------------------------|--------------------------|


                                                      
--------------------------|--------------------------|
--------------------------|--------------------------|
--------------------------|--------------------------|
--1--1--1--1--1--1--1--1--|--0--0--0--0--0--0--0--0--|


                                                      
--------------------------|--------------------------|
--------------------------|--------------------------|
--1--1--1--1--1--1--1--1--|--------------------------|
--------------------------|--1--1--1--1--1--1--1--1--|


                                                      
--------------------------|--------------------------|
--------------------------|--------------------------|
--------------------------|--------------------------|
--1--1--1--1--1--1--1--1--|--0--0--0--0--0--0--0--0--|


                                                      
--------------------------|--------------------------|
--------------------------|--------------------------|
--1--1--1--1--1--1--1--1--|--------------------------|
--------------------------|--1--1--1--1--1--1--1--1--|


                                                      
--------------------------|--------------------------|
--------------------------|--------------------------|
--3--3--3--3--3--3--3--3--|--3--3--3--3--3--3--3--3--|
--------------------------|--------------------------|


                                                      
--------------------------|--------------------------|
--------------------------|--------------------------|
--4--4--4--4--4--4--4--4--|--4--4--4--4--4--4--4--4--|
--------------------------|--------------------------|


                                                      
--------------------------|--------------------------|
--------------------------|--------------------------|
--------------------------|--------------------------|
--1--1--1--1--1--1--1--1--|--3--3--3--3--3--3--3--3--|


                                                      
--------------------------|--------------------------|
--------------------------|--------------------------|
--4--4--4--4--4--4--4--4--|--3--3--3--3--3--3--3--3--|
--------------------------|--------------------------|


                                                      
--------------------------|--------------------------|
--------------------------|--------------------------|
--------------------------|--------------------------|
--1--1--1--1--1--1--1--1--|--3--3--3--3--3--3--3--3--|


                                                      
--------------------------|--------------------------|
--------------------------|--------------------------|
--4--4--4--4--4--4--4--4--|--3--3--3--3--3--3--3--3--|
--------------------------|--------------------------|


                                                      
--------------------------|--------------------------|
--------------------------|--------------------------|
--------------------------|--------------------------|
--1--1--1--1--1--1--1--1--|--3--3--3--3--3--3--3--3--|


                                                      
--------------------------|--------------------------|
--------------------------|--------------------------|
--4--4--4--4--4--4--4--4--|--3--3--3--3--3--3--3--3--|
--------------------------|--------------------------|


                                                      
--------------------------|--------------------------|
--------------------------|--------------------------|
--------------------------|--------------------------|
--1--1--1--1--1--1--1--1--|--3--3--3--3--3--3--3--3--|


                                                                             
--------------------------|--------------------------|----------------------|
--------------------------|--------------------------|----------------------|
--4--4--4--4--4--4--4--4--|--3--3--3--3--3--3--3--3--|----------------------|
--------------------------|--------------------------|--1----1----1----1----|


                                                                     
----------------------|----------------------|----------------------|
----------------------|----------------------|----------------------|
----------------------|--1----1----1----1----|----------------------|
--0----0----0----0----|----------------------|--1----1----1----1----|


                                                      
--------------------------|--------------------------|
--------------------------|--------------------------|
--------------------------|--------------------------|
--1--1--1--1--1--1--1--1--|--0--0--0--0--0--0--0--0--|


                                                      
--------------------------|--------------------------|
--------------------------|--------------------------|
--1--1--1--1--1--1--1--1--|--------------------------|
--------------------------|--1--1--1--1--1--1--1--1--|


                                                                         
--------------------------|--------------------------|------------------|
--------------------------|--------------------------|------------------|
--4--4--4--4--4--4--4--4--|--3--3--3--3--3--3--3--3--|------------------|
--------------------------|--------------------------|------------------|


                                                      
--------------------------|--------------------------|
--------------------------|--------------------------|
--------------------------|--4--4--4--4--4--4--4--4--|
--4--4--4--4--3--3--3--3--|--------------------------|


                                                                         
--------------------------|------------------|--------------------------|
--------------------------|------------------|--------------------------|
--3--3--3--3--3--3--3--3--|------------------|--------------------------|
--------------------------|------------------|--1--1--1--1--1--1--1--1--|


                                                                         
--------------------------|--------------------------|------------------|
--------------------------|--------------------------|------------------|
--4--4--4--4--4--4--4--4--|--3--3--3--3--3--3--3--3--|------------------|
--------------------------|--------------------------|------------------|


                                                      
--------------------------|--------------------------|
--------------------------|--------------------------|
--------------------------|--4--4--4--4--4--4--4--4--|
--4--4--4--4--3--3--3--3--|--------------------------|


                                                                         
--------------------------|------------------|--------------------------|
--------------------------|------------------|--------------------------|
--3--3--3--3--3--3--3--3--|------------------|--------------------------|
--------------------------|------------------|--1--1--1--1--1--1--1--1--|


                                                      
--------------------------|--------------------------|
--------------------------|--------------------------|
--------------------------|--------------------------|
--1--1--1--1--1--1--1--1--|--3--3--3--3--3--3--3--3--|


                                                      
--------------------------|--------------------------|
--------------------------|--------------------------|
--4--4--4--4--4--4--4--4--|--3--3--3--3--3--3--3--3--|
--------------------------|--------------------------|


                                                      
--------------------------|--------------------------|
--------------------------|--------------------------|
--------------------------|--------------------------|
--1--1--1--1--1--1--1--1--|--3--3--3--3--3--3--3--3--|


                                                      
--------------------------|--------------------------|
--------------------------|--------------------------|
--4--4--4--4--4--4--4--4--|--3--3--3--3--3--3--3--3--|
--------------------------|--------------------------|


                                                      
--------------------------|--------------------------|
--------------------------|--------------------------|
--------------------------|--------------------------|
--1--1--1--1--1--1--1--1--|--3--3--3--3--3--3--3--3--|


                                                      
--------------------------|--------------------------|
--------------------------|--------------------------|
--4--4--4--4--4--4--4--4--|--3--3--3--3--3--3--3--3--|
--------------------------|--------------------------|


                                                      
--------------------------|--------------------------|
--------------------------|--------------------------|
--------------------------|--------------------------|
--1--1--1--1--1--1--1--1--|--3--3--3--3--3--3--3--3--|


                                                      
--------------------------|--------------------------|
--------------------------|--------------------------|
--4--4--4--4--4--4--4--4--|--3--3--3--3--3--3--3--3--|
--------------------------|--------------------------|


                                                      
--------------------------|--------------------------|
--------------------------|--------------------------|
--------------------------|--------------------------|
--1--1--1--0--0--0--0--0--|--0--0--0--1--1--1--1--1--|


                                                      
--------------------------|--------------------------|
--------------------------|--------------------------|
-----------1--1--1--1--1--|--1--1--1--3--3--3--3--3--|
--1--1--1-----------------|--------------------------|

[ Tab from: http://www.guitartabs.cc/tabs/b/blind_guardian/banish_from_sanctuary_btab.html ]
                                                      
--------------------------|--------------------------|
--------------------------|--------------------------|
--------------------------|--------------------------|
--1--1--1--0--0--0--0--0--|--0--0--0--1--1--1--1--1--|


                                                      
--------------------------|--------------------------|
--------------------------|--------------------------|
-----------1--1--1--1--1--|--1--1--1--3--3--3--3--3--|
--1--1--1-----------------|--------------------------|


                                                      
--------------------------|--------------------------|
--------------------------|--------------------------|
--------------------------|--------------------------|
--1--1--1--0--0--0--0--0--|--0--0--0--1--1--1--1--1--|


                                                      
--------------------------|--------------------------|
--------------------------|--------------------------|
-----------1--1--1--1--1--|--1--1--1--3--3--3--3--3--|
--1--1--1-----------------|--------------------------|


                                                                         
--------------------------|--------------------------|------------------|
--------------------------|--------------------------|------------------|
--4--4--4--4--4--4--4--4--|--3--3--3--3--3--3--3--3--|------------------|
--------------------------|--------------------------|------------------|


                                                      
--------------------------|--------------------------|
--------------------------|--------------------------|
--------------------------|--4--4--4--4--4--4--4--4--|
--4--4--4--4--3--3--3--3--|--------------------------|


                                                                         
--------------------------|------------------|--------------------------|
--------------------------|------------------|--------------------------|
--3--3--3--3--3--3--3--3--|------------------|--------------------------|
--------------------------|------------------|--1--1--1--1--1--1--1--1--|


                                                                         
--------------------------|--------------------------|------------------|
--------------------------|--------------------------|------------------|
--4--4--4--4--4--4--4--4--|--3--3--3--3--3--3--3--3--|------------------|
--------------------------|--------------------------|------------------|


                                                      
--------------------------|--------------------------|
--------------------------|--------------------------|
--------------------------|--4--4--4--4--4--4--4--4--|
--4--4--4--4--3--3--3--3--|--------------------------|


                                                                         
--------------------------|------------------|--------------------------|
--------------------------|------------------|--------------------------|
--3--3--3--3--3--3--3--3--|------------------|--------------------------|
--------------------------|------------------|--1--1--1--1--1--1--1--1--|


                                                                         
--------------------------|--------------------------|------------------|
--------------------------|--------------------------|------------------|
--------------------------|--------------------------|------------------|
--1--1--1--1--1--1--1--1--|--1--1--1--1--1--1--1--1--|------------------|


                                                                         
------------------|--------------------------|--------------------------|
------------------|--------------------------|--------------------------|
------------------|--1--1--1--1--1--1--1--1--|--1--1--1--1--1--1--1--1--|
------------------|--------------------------|--------------------------|


                                                                          
--------------------------|-------------------|--------------------------|
--------------------------|-------------------|--------------------------|
--3--3--3--3--3--3--3--3--|--4----------------|--------------------------|
--------------------------|-------------------|--1--1--1--1--1--1--1--1--|


                                                      
--------------------------|--------------------------|
--------------------------|--------------------------|
--------------------------|--4--4--4--4--4--4--4--4--|
--1--1--1--1--1--1--1--1--|--------------------------|


                                                      
--------------------------|--------------------------|
--------------------------|--------------------------|
--3--3--3--3--3--3--3--3--|--------------------------|
--------------------------|--1--1--1--1--1--1--1--1--|


                                                      
--------------------------|--------------------------|
--------------------------|--------------------------|
--------------------------|--4--4--4--4--4--4--4--4--|
--1--1--1--1--1--1--1--1--|--------------------------|


                                                      
--------------------------|--------------------------|
--------------------------|--------------------------|
--3--3--3--3--3--3--3--3--|--3--3--3--3--3--3--3--3--|
--------------------------|--------------------------|


                                                                                
--------------------------|--------------------------|-------------------------|
--------------------------|--------------------------|-------------------------|
--3--3--3--3--3--3--3--4--|--3--3--3--3--3--3--3--3--|--3--3--3--3--3--3--3----|
--------------------------|--------------------------|-------------------------|


                                                                                
--------------------------|-------------------------|--------------------------|
--------------------------|-------------------------|--------------------------|
--------------------------|-------------------------|--3--3--3--3--3--3--3--3--|
--4--4--4--4--4--4--4--4--|--4--4--4--4--4--4--4----|--------------------------|


                                                                                
--------------------------|--------------------------|-------------------------|
--------------------------|--------------------------|-------------------------|
--3--3--3--3--3--3--3--4--|--3--3--3--3--3--3--3--3--|--3--3--3--3--3--3--3----|
--------------------------|--------------------------|-------------------------|


                                                                                
--------------------------|-------------------------|--------------------------|
--------------------------|-------------------------|--------------------------|
--------------------------|-------------------------|--3--3--3--3--3--3--3--3--|
--4--4--4--4--4--4--4--4--|--4--4--4--4--4--4--4----|--------------------------|


                                                                          
-------------------|--------------------------|--------------------------|
-------------------|--------------------------|--------------------------|
--3----------------|--------------------------|--------------------------|
-------------------|--1--1--1--1--1--1--1--1--|--1--1--1--1--1--1--1--1--|


                                                      
--------------------------|--------------------------|
--------------------------|--------------------------|
--------------------------|--------------------------|
--1--1--1--1--1--1--1--1--|--1--1--1--1--1--1--1--1--|


                                                      
--------------------------|--------------------------|
--------------------------|--------------------------|
--4--4--4--4--4--4--4--4--|--4--4--4--4--4--4--4--4--|
--------------------------|--------------------------|


                                                      
--------------------------|--------------------------|
--------------------------|--------------------------|
--4--4--4--4--4--4--4--4--|--4--4--4--4--4--4--4--4--|
--------------------------|--------------------------|


                                                      
--------------------------|--------------------------|
--------------------------|--------------------------|
--------------------------|--------------------------|
--1--1--1--1--1--1--1--1--|--1--1--1--1--1--1--1--1--|


                                                      
--------------------------|--------------------------|
--------------------------|--------------------------|
--------------------------|--------------------------|
--1--1--1--1--1--1--1--1--|--1--1--1--1--1--1--1--1--|


                                                      
--------------------------|--------------------------|
--------------------------|--------------------------|
--4--4--4--4--4--4--4--4--|--4--4--4--4--4--4--4--4--|
--------------------------|--------------------------|


                                                      
--------------------------|--------------------------|
--------------------------|--------------------------|
--4--4--4--4--4--4--4--4--|--4--4--4--4--4--4--4--4--|
--------------------------|--------------------------|


                                                      
--------------------------|--------------------------|
--------------------------|--------------------------|
--------------------------|--------------------------|
--1--1--1--1--1--1--1--1--|--1--1--1--1--1--1--1--1--|


                                                      
--------------------------|--------------------------|
--------------------------|--------------------------|
--------------------------|--------------------------|
--1--1--1--1--1--1--1--1--|--1--1--1--1--1--1--1--1--|


                                                      
--------------------------|--------------------------|
--------------------------|--------------------------|
--4--4--4--4--4--4--4--4--|--4--4--4--4--4--4--4--4--|
--------------------------|--------------------------|


                                                      
--------------------------|--------------------------|
--------------------------|--------------------------|
--4--4--4--4--4--4--4--4--|--4--4--4--4--4--4--4--4--|
--------------------------|--------------------------|


                                                      
--------------------------|--------------------------|
--------------------------|--------------------------|
--------------------------|--------------------------|
--1--1--1--1--1--1--1--1--|--0--0--0--0--0--0--0--0--|


                                                      
--------------------------|--------------------------|
--------------------------|--------------------------|
--1--1--1--1--1--1--1--1--|--------------------------|
--------------------------|--1--1--1--1--1--1--1--1--|


                                                      
--------------------------|--------------------------|
--------------------------|--------------------------|
--------------------------|--------------------------|
--1--1--1--1--1--1--1--1--|--0--0--0--0--0--0--0--0--|


                                                      
--------------------------|--------------------------|
--------------------------|--------------------------|
--1--1--1--1--1--1--1--1--|--------------------------|
--------------------------|--1--1--1--1--1--1--1--1--|


                                                      
--------------------------|--------------------------|
--------------------------|--------------------------|
--3--3--3--3--3--3--3--3--|--3--3--3--3--3--3--3--3--|
--------------------------|--------------------------|


                                                      
--------------------------|--------------------------|
--------------------------|--------------------------|
--4--4--4--4--4--4--4--4--|--4--4--4--4--4--4--4--4--|
--------------------------|--------------------------|


                                                      
--------------------------|--------------------------|
--------------------------|--------------------------|
--------------------------|--------------------------|
--1--1--1--1--1--1--1--1--|--3--3--3--3--3--3--3--3--|


                                                      
--------------------------|--------------------------|
--------------------------|--------------------------|
--4--4--4--4--4--4--4--4--|--3--3--3--3--3--3--3--3--|
--------------------------|--------------------------|


                                                      
--------------------------|--------------------------|
--------------------------|--------------------------|
--------------------------|--------------------------|
--1--1--1--1--1--1--1--1--|--3--3--3--3--3--3--3--3--|


                                                      
--------------------------|--------------------------|
--------------------------|--------------------------|
--4--4--4--4--4--4--4--4--|--3--3--3--3--3--3--3--3--|
--------------------------|--------------------------|


                                                      
--------------------------|--------------------------|
--------------------------|--------------------------|
--------------------------|--------------------------|
--1--1--1--1--1--1--1--1--|--3--3--3--3--3--3--3--3--|


                                                      
--------------------------|--------------------------|
--------------------------|--------------------------|
--4--4--4--4--4--4--4--4--|--3--3--3--3--3--3--3--3--|
--------------------------|--------------------------|


                                                      
--------------------------|--------------------------|
--------------------------|--------------------------|
--------------------------|--------------------------|
--1--1--1--1--1--1--1--1--|--3--3--3--3--3--3--3--3--|


                                                      
--------------------------|--------------------------|
--------------------------|--------------------------|
--4--4--4--4--4--4--4--4--|--3--3--3--3--3--3--3--3--|
--------------------------|--------------------------|


                                                      
--------------------------|--------------------------|
--------------------------|--------------------------|
--------------------------|--------------------------|
--1--1--1--1--1--1--1--1--|--3--3--3--3--3--3--3--3--|


                                                      
--------------------------|--------------------------|
--------------------------|--------------------------|
--4--4--4--4--4--4--4--4--|--3--3--3--3--3--3--3--3--|
--------------------------|--------------------------|


                                                      
--------------------------|--------------------------|
--------------------------|--------------------------|
--------------------------|--------------------------|
--1--1--1--1--1--1--1--1--|--3--3--3--3--3--3--3--3--|


                                                                             
--------------------------|--------------------------|----------------------|
--------------------------|--------------------------|----------------------|
--4--4--4--4--4--4--4--4--|--3--3--3--3--3--3--3--3--|----------------------|
--------------------------|--------------------------|--1----1----1----1----|


                                                                     
----------------------|----------------------|----------------------|
----------------------|----------------------|----------------------|
----------------------|--1----1----1----1----|----------------------|
--0----0----0----0----|----------------------|--1----1----1----1----|


                                                                             
-------------------|------------------|------------------|------------------|
-------------------|------------------|------------------|------------------|
-------------------|------------------|------------------|------------------|
--1----------------|------------------|------------------|------------------|


                    
------------------||
------------------||
------------------||
------------------||
Comments