Blind Guardian - A Past And Future Secret Chords & Tabs

 

A Past And Future Secret Chords & Tabs

Blind Guardian Chords & Tabs

Version: 2 Type: Tab 0 ratings
1 star 2 stars 3 stars 4 stars 5 stars
comments

A Past And Future Secret Tab

   
Blind Guardian
Past and Future secret
This song is based upon two main rifs with some alternating fills
Rif 1 

E----------------------- 

A----------------------- 

D-4------------4---4-2-4 Play this twice 

G---------2-----1h2---1- 

B--2h3-0-2--0----------- 

E----------------------- 

Fill 

E------------------- 

A------------------- 

D-4(pause)h6p4------ 

G----------------2-1 

B-------------2-0--- 

E------------------- 

Main Rif 2 

E------------------------ 

A------------------------ 

D------------------------ Repeat 

G------------------------ 

B------------------------ 

E-2-2-2-2-0-5-4h5p4-0-4-2 

Chorus 

E----------------- 

A-5-5-5----------- 

D-4-4-4-----------Repeat three times 

G-2---1----------- 

B---3------------- 

E------0-4h5p4-0-4 

Main Rif 1 four times 

Play chorus 

Bridge 

E--------------------------------- 

A--------------------------------- 

D-4-----------------4------------- 

G-------------2-----------------2- 

B--3-2-0-2-0-2-0-2-3-3-2-0-2-0-2-0 

E--------------------------------- 


E------------------------------ 

A-----------------------------4 

D-4-----------------4------4-2- 

G-------------2-----------2---- 

B--3-2-0-2-0-2-0-2-3-3-2-0----- 
[ Tab from: http://www.guitartabs.cc/tabs/b/blind_guardian/a_past_and_future_secret_tab_ver_2.html ]
E------------------------------ 

Fill 

Bridge 2 

E---------------------------------------------------- 

A---------------------------------------------------- 

D------------------------4-----------------4--------- 

G------------------------------------2--------------- 

B-------------------------3-2-0-2-0-2-0-2-3-3-2-0-2-0 

E-2-2-2-2-0-5-4h5p4-0-4-2---------------------------- 


E--------------------------------------------------------- 

A--------------------------------------------------------- 

D----4--------------------4-----------------4------------- 

G--2----------------------------------2-----------------2- 

B-2-0----------------------3-2-0-2-0-2-0-2-3-3-2-0-2-0-2-0 

E------2-2-2-2-0-5-4h5p4-0-------------------------------- 


Fill 

Bridge 3 

E----------------------------------------------------- 

A----------------------------------------------------- 

D-4------------------4-------------4------------------ 

G--------------2-----------------2--------------2----- 

B--3-2-0-2-0--2-0-2-3-3-2-0-2-0-2-0--3-2-0-2-0-2-0-2-3 

E----------------------------------------------------- 


E------------- 

A-----------4- 

D-4------4-2-4 

G-------2----- 

B--3-2-0------ 

E------------- 

There are some corrections that need finding, so one i've found where i'll update my tab
Neil2Earth
Comments