Blind Guardian - A Past And Future Secret Chords & Tabs

 

A Past And Future Secret Chords & Tabs

Blind Guardian Chords & Tabs

Version: 1 Type: Bass Tab 0 ratings
1 star 2 stars 3 stars 4 stars 5 stars
comments

A Past And Future Secret Bass Tab

   
Artist: Blind Guardian		
Song:   A Past and Future Secret
Album:  Live

Tuning: Standart (E A D G)

Tabbed by R4Z0R


h - hammer on
p - pull off
/ - slide up


Intro

G|--------|
D|--REST--|
A|--------|
E|--------|


Verse 1 (0:20)

G|----------|---4/6-4-----|----------|----------|---4/6-4-----|----------|
D|----------|---------7-6-|4--2------|4---------|---------7-6-|4--2------|
A|----------|-------------|----------|----------|-------------|----------|
E|2-------0-|2------------|----------|--------0-|2------------|----------|


Chorus (0:42)

G|----------|----------| x3
D|----------|-------2--|
A|5----4-2--|-----2----|
E|----------|0---------|


Verse 2 (1:00)

G|----------|----------|----------|----------|
D|4--2-4--2-|4---------|4--2-4--2-|4---------|
A|----------|-----4-5--|----------|-----4-5--|
E|----------|----------|----------|----------|
 
G|----------|----------|----------|----------|
D|4---2--4--|4---------|4---2--4--|4---------|
A|----------|-----4----|----------|-----4-5--|
E|----------|----------|----------|----------|
[ Tab from: http://www.guitartabs.cc/tabs/b/blind_guardian/a_past_and_future_secret_btab.html ]
G|----------|----------|----------|----------|
D|4---2-----|4---------|4---2--4--|4---------|
A|----------|-----4----|----------|-----4-5--|
E|----------|----------|----------|----------|
			   

Chorus (1:35)

G|----------|----------| x5
D|----------|-------2--|
A|5----4-2--|-----2----|
E|----------|0---------|


Interlude 1

G|----------|----------|----------|4h6p4----------|
D|----------|----------|----------|------7-6-4-2--|
A|----------|----------|----------|--------------2|
E|2--0-2--0-|2--0-2--0-|2--0-2--0-|---------------|

G|----------|---4/6-4-----|
D|----------|4--------7-6-|
A|--------4-|-------------|
E|2---------|-------------|


Verse 3

G|----------|----------|---4/6-4-----|----------|----------|
D|4----2----|(2)--4----|(4)------7-6-|4--2------|4---------|
A|----------|----------|-------------|------5---|--------4-|
E|----------|----------|-------------|----------|----------|

G|---4/6-4-----|----------|
D|4--------7-6-|4----2----|
A|-------------|----------|
E|-------------|----------|


Chorus 

G|----------|----------| x7
D|----------|-------2--|
A|5----4-2--|-----2----|
E|----------|0---------|


Interlude 2

G|----------|----------|----------|4h6p4----------|-----------|
D|----------|----------|----------|------7-6-4-2--|-----4-----|
A|----------|----------|----------|--------------2|---4---4---|
E|2--0-2--0-|2--0-2--0-|2--0-2--0-|---------------|2---------2|
Comments