Blind Dumb Luck - Cruising Chords & Tabs

 

Cruising Chords & Tabs

Blind Dumb Luck Chords & Tabs

Version: 1 Type: Tab 0 ratings
1 star 2 stars 3 stars 4 stars 5 stars
comments

Cruising Tab

   
Artist: Blind Dumb Luck
Song: Cruising
[ Tab from: http://www.guitartabs.cc/tabs/b/blind_dumb_luck/cruising_tab.html ]
Verses: (first two chords picked)
E----0-------0-------1----0-------
B----3-------3-------1----0-------
G----0-------0-------2----1-------
D----2-------0-------3----2-------
A----3-------2-------3----2-------
E----0-------3-------1----0-------

Choruses:

G A (5x)
D C A

Figure out the solo yourself!

Outro:

A----3----2----------
E--------------1----0

-Fishdog
Comments